Datsuns - Im In Love Chords & Tabs

 

Im In Love Chords & Tabs

Datsuns Chords & Tabs

Version: 4 Type: Tab 0 ratings
1 star 2 stars 3 stars 4 stars 5 stars
comments

Im In Love Tab

The Datsuns - In Love

Great Tune!!

Intro/Chorus x3

E ------------------------------------------------------------
B ------------------------------------------------------------
G ---------3--5-----------3--5-----------3--5--6-6--5-3-------
D --5-5-5--3--5----5-5-5--3--5----5-5-5--3--5--6-6--5-3--3--/-
A --5-5-5--1--3----5-5-5--1--3----5-5-5--1--3--4-4--3-1--3--/- Slide only after 1st time
E --3-3-3----------3-3-3----------3-3-3------------------1--/-

Verse x2

E----------------------
B----------------------
G-----------3-----3-5--
D---5-------3--3--3-5--
A---5--X16--1--3--1-3--
E---3----------1-------


Intro/Chorus x2

Verse x2


Interlude

E----------------------			       E------------------
B----------------------                        B------------------
G----------------------			       G------------------
D--5--5b~-5b~-5b~------	       Then......      D--5--6--7--8------
A--x-------------------                        A--5--6--7--8------
E--3-------------------                        E--3--4--5--6------

Solo x2
[ Tab from: http://www.guitartabs.cc/tabs/d/datsuns/im_in_love_tab_ver_4.html ]
E---------------------------------------------------------------
B---------------------------------------------------------------
G-----------8-10--12-12-12--8----------------8-10------9--------
D-10-10-10--8-10--12-12-12--8-10---10-10-10--8-10--9-9-9-10-----
A-10-10-10--6--8--10-10-10--6-10---10-10-10--6--8--9-9-7-10-----
E--8--8--8---------------------8----8--8--8--------7-7----8-----

Bridge x2

E-----------------------------------
B-----------------------------------
G------8--5-5-5-5-5-------8---7~----
D--6---8--5-5-5-5-5---6---8---7~----
A--6---6--3-3-3-3-3---6---6---5~----
E--4------------------4-------------


Intro/Chorus x2


Outro x2

E-----------------------------------------------------
B-----------------------------------------------------
G-------3--5-----7-7--3----------3--5-6-6--5-3--------
D--5-5--3--5-----7-7--3--5----5--3--5-6-6--5-3--3~----
A--5-5--1--3-----5-5--1--5----5--1--3-4-4--3-1--3~----
E--3-3-------------------3----3-----------------1~----

End on..

E--------
B--------
G--------
D--5-----
A--5-----
E--3-----


Key

x = mute
/ = slide
~ = let note ring

Tabbed by James Graham (burnaway_fighte)
If any one has any corrections then e-mail on 
guitardude17_uk@yahoo.co.uk
Comments