Datsuns - Harmonic Generator Chords & Tabs

 

Harmonic Generator Chords & Tabs

Datsuns Chords & Tabs

Version: 4 Type: Tab 0 ratings
1 star 2 stars 3 stars 4 stars 5 stars
comments

Harmonic Generator Tab

Harmonic Generator: 
haydenism_1@hotmail.com 
[ Tab from: http://www.guitartabs.cc/tabs/d/datsuns/harmonic_generator_tab_ver_4.html ]
Code:
--------------------------------------------------------------------------------
 
               Intro 
e|---------------------------------|
b|---------------------------------|
g|---------------------------------|
d|8**88--88--8-8-------------------|
a|8**88--88--8-8-------------------|
E|6**66--66--6-6-------------------|
          Repeat throughout
 
               
               Bridge
e|---------------------------------|
b|---------------------------------|
g|-------------66------------------|
d|5**55--66-6--666-----------------|
a|5**55--66-6--446-----------------|
E|3**33--44-4----4-----------------|
 
            
e|------------------------------------------|
b|------------------------------------------|
g|------------------------------------------|
d|8********5678********888*8**8**8**888*8888|
a|8********5678********888*8**8**8**888*8888|
E|6********3456********666*6**6**6**666*6666|
 
              Build up to solo
 
I haven't figured out the solo which i unfortunately dont know
 
                 Interlude
e|------------------------------------------|
b|------------------------------------------|
g|------------------------------------------|  
d|8885888588858-567-------------------------|
a|8885888588858-567-------------------------|
E|6663666366636-345-------------------------|
             Repeat until end

 

--------------------------------------------------------------------------------
 




Comments