Datsuns - Harmonic Generator Chords & Tabs

 

Harmonic Generator Chords & Tabs

Datsuns Chords & Tabs

Version: 2 Type: Tab 0 ratings
1 star 2 stars 3 stars 4 stars 5 stars
comments

Harmonic Generator Tab

   
HARNONIC GENERATOR
BY THE DATSUNS
TRACK 4 ON THE ALBUM THE DATSUNS
TABBED BY HARRY 16/2/03

THIS IS ANOTHER EXCEPTIONALLY COOL SONG FROM THOSE 
CRAZY NEW ZEALANDERS. NOT TO DIFFICULT TO PLAY JUST
KEEP RHYTHYM CAREFULLY ESPECIALLY IN THE SOLOS.
CHRISTIAN USES A HARMONIC GENERATOR FOR THE SECOND SOLO 
AND UNLESS YOU ARE A LUCKY BASTARD YOU WONT HAVE ONE 
THOUGH A SIMILAR TONE CAN BE ACHIEVED BY USING A WAH IN
SOME FIXED POSITION, SO MESS AROUND.

CHORDS

 | A#5 | G#5 | G5  | C#5 | f5  |
--------------------------------  
e|     |     |     |     |     |
B|     |     |     |     |     | 
G|     |     |     |  6  |     |
D|  8  |  6  |  5  |  6  |  3  |
A|  8  |  6  |  5  |  4  |  3  | 
E|  6  |  4  |  3  |     |  1  |

MAIN RIFF/VERSE
gtr.1(phil)

e|-----------------------------------------------
B|-----------------------------------------------
G|-----------------------------------------------
D|--8------8-8----8-8----8---8-------------------
A|--8------8-8----8-8----8---8-------------------
E|--6------6-6----6-6----6---6-------------------

CHORUS
gtr.1

e|-----------------------------------------------
B|-----------------------------------------------
G|-------------------------6-6-------------------
D|--5------5-5----6-6---6--6-6--THEN MAIN RIFF---       X2
A|--5------5-5----6-6---6--4-4-------------------
E|--3------3-3----4-4---4------------------------

VERSE

CHORUS

SOLO 1 at 1.17
gtr.2(christian)
gtr.1 plays main riff

e|--6/7--6-6/7--6------6\--6------------6--------
B|--6/7--6-6/7--6------6\--6------------6--------
G|----------------8b10--------8-6----6-----8-6br-
D|---------------------------------8-------------
A|-----------------------------------------------
E|-----------------------------------------------

e|---------6-------------------------10----8--6--
B|------6-----9-6--------------------------------
G|--/8-------------8-6br---------/10-----8-------
D|-----------------------8-6-8/------------------
A|-----------------------------------------------
E|-----------------------------------------------

CHORUS

BRIDGE
gtr.1
[ Tab from: http://www.guitartabs.cc/tabs/d/datsuns/harmonic_generator_tab_ver_2.html ]
e|-----------------------------------------------
B|-----------------------------------------------
G|-----------------------------------------------
D|-3-------3-3-3-3--------3-3-3-3-------3--------
A|-3-------3-3-3-3--------3-3-3-3-------3--------
E|-1-------1-1-1-1--------1-1-1-1-------1--------

SOLO 2 at 2.00 
gtr.2(WITH HARM. GENERATOR)
gtr.1 plays main riff and chorus riff. listen
to the song for changes.

e|-----------------------------------------------
B|-----------------------------------------------
G|-----------------------------------------------
D|---------------13~~~~~~~~~~~~~~~~~~~~~~~~~~~---
A|-13~~~~~~~~~~~---------------------------------
E|-----------------------------------------------

e|-----------------------------------------------
B|-----------------------------------------------
G|-----------------------------------------------
D|-11~~~~~~~~~~-----------------11-13/15~~~~~~~~-
A|--------------13-11-13~~~--13------------------
E|-----------------------------------------------

e|-----------------------------------------------
B|-----------------------------------------------
G|-------------20~~~~~~~~~~~~~~~~~~~~------------
D|-/20~~~~~~~------------------------------------
A|-------------------------------------17p16p15--
E|-----------------------------------------------

e|-----------------------------------------------
B|-----------------------------------------------
G|-------------15----------15----15-15-17b-15----
D|-------15-17----17-15-17----17-----------------
A|----17-----------------------------------------
E|-18--------------------------------------------

e|-----------------------------------------------
B|------------------------18-18-16------------16-
G|------------------15-17----------17--15--17----
D|-----/15-15b---17------------------------------
A|-17--------------------------------------------
E|-----------------------------------------------

e|-----------------------------------------------
B|--18-18-16-------------------------------------
G|-----------17--15------------------------------
D|-----------------------------------------------
A|-----------------------------------------------
E|-----------------------------------------------

OUTRO
gtr.2
gtr.1 plays chords

    A#5                               C#5
e|-----------------------------------------------
B|-----------------------------------------------
G|--15-13----13-------------15-13----------------   X8
D|--------15------15-13-----------15-------------
A|-----------------------------------------------
E|-----------------------------------------------

gtrs.1 & 2
e|-------------
B|-------------
G|-------------
D|--8/---------
A|--8/---------
E|--6/---------
Comments