Datsuns - Harmonic Generator Chords & Tabs

 

Harmonic Generator Chords & Tabs

Datsuns Chords & Tabs

Version: 10 Type: Tab 0 ratings
1 star 2 stars 3 stars 4 stars 5 stars
comments

Harmonic Generator Tab

   
harmonic generator solo

key:
  /=slide toward headstock
  \=slide toward body
  b=bend
  r=release
  ^^^=tremelo bend
  p=pulloff
 { }=let ring


e-----6---9-9--6---------6/-----------------------------------------------|
b-----6---9-9--6---8b----6/-------8b9r8------------8b9r8------------------|
g------------------8b-------------8b9r8---6----6---8b9r8---6-----7^^^/----|
d--------------------------------------------8----------------------------|
a-------------------------------------------------------------------------|
e-------------------------------------------------------------------------|
[ Tab from: http://www.guitartabs.cc/tabs/d/datsuns/harmonic_generator_tab_ver_10.html ]
e-----------6--------------------------------------------------------------|
b--------6------9p6--------------------------------------------------------|
g-----8---------------8----6b----------------------------------------------|
d-------------------------------8--6--8/-----------------------------------|
a--------------------------------------------------------------------------|
e--------------------------------------------------------------------------|

e---------------------------------------------------------------------------|
b----------{15}------13-----------------------------------------------------|
g---13\15------13------{15}/------------------------------------------------|
d---13\15------13-----------------------------------------------------------|
a---------------------------------------------------------------------------|
e---------------------------------------------------------------------------|
Comments