Datsuns - Get Up Dont Fight It Chords & Tabs

 

Get Up Dont Fight It Chords & Tabs

Datsuns Chords & Tabs

Version: 1 Type: Bass Tab 0 ratings
1 star 2 stars 3 stars 4 stars 5 stars
comments

Get Up Dont Fight It Bass Tab

   
Tabbed By : BenjaMINO
e-mail: Benflipper@hotmail.com

Ok its 1am, im very tired n if its wrong i dunt right care. its close anyways.

Tuning: standard

Intro:

G|---------|
D|---------|
A|-2-2-----|
E|---------|

Verse:

G|----------------------------|
D|-----------0-2-2-0-2-0------|
A|-2-2-2-0-2-------------2-0--|
E|----------------------------|

Bridge:
[ Tab from: http://www.guitartabs.cc/tabs/d/datsuns/get_up_dont_fight_it_btab.html ]
G|-------------------|
D|-------------------|
A|---------------1---|
E|-2-2-2-2-2-4-5-----|

Chorus:

G|----------------------------|
D|-----------0-2-2-0-2-0------|
A|-2-2-2-0-2-------------2-0--|
E|----------------------------|

| /  slide up
| \  slide down
| h  hammer-on
| p  pull-off
| ~  vibrato
| +  harmonic
| x  Mute note
===============================================================================

www.TruVine.tk, www.TruVineForum.tk
Comments