Datsuns - Freeze Sucker Chords & Tabs

 

Freeze Sucker Chords & Tabs

Datsuns Chords & Tabs

Version: 3 Type: Tab 0 ratings
1 star 2 stars 3 stars 4 stars 5 stars
comments

Freeze Sucker Tab

   
-------------------------------------------------------------------------------
			     Freeze Sucker - The Datsuns
-------------------------------------------------------------------------------
Tabbed by:Mark O'Leary
Email:mad_d0g89@hotmail.com, feel free to rate and send me nice emails.
this is as best i know the song.sounds pretty spot on to me.

Tuning:standard

INTRO
e|------------------------------|
B|------------------------------|
G|------------------------------|x lots.
D|-------------3h5--------------|
A|-5-------3h5-----------3-4----|
E|---0-3h5---------3-4-5--------|
[ Tab from: http://www.guitartabs.cc/tabs/d/datsuns/freeze_sucker_tab_ver_3.html ]
VERSE
e|----------------|------------------------|
B|----------------|------------------------|
G|--77------5-----|------------------------|
D|--77--5h7---x 3-|-3-4-5------------------|
A|--55------------|-------3-4-5------------|
E|----------------|------------------------|



CHORUS

e|--------------------|----------------------------------------------------|
B|--------------------|----------------------------------------------------|
G|--7~----------------|-on 2nd chorus add this-----------------------------|
D|--7~-5~--/-8--/--10-|------------------------3---7-----------------------|
A|--5~-5~--/-8--/--10-|------------------------3---7-----------------------|
E|-----3~--/-6--/---8-|------------------------1---5-----------------------|
  hey baby....                                you and me.... 


sorry guys no solo.hope the rest is ok.

| /  slide up
| \  slide down
| h  hammer-on
| p  pull-off
| ~  vibrato
| +  harmonic
| x  Mute note
===============================================================================
Comments