Datsuns - Fink For The Man Chords & Tabs

 

Fink For The Man Chords & Tabs

Datsuns Chords & Tabs

Version: 1 Type: Tab 0 ratings
1 star 2 stars 3 stars 4 stars 5 stars
comments

Fink For The Man Tab

   
FINK FOR THE MAN BY THE DATSUNS
TRACK 7 ON THE ALBUM THE DATSUNS
TABBED BY HARRY 16/2/03


gtr.1(phil) 
e|------------------------------------------------------
B|------------------------------------------------------
G|----5---5-7-5-7brp5---5-7-5-----5---5-7-5-------------
D|--7-5-7-5-7-5-7brp5-7-5-7-5---7-5-7-5-7-5-------------
A|--7---7-------------7---------7---7-------------------
E|------------------------------------------------------

e|------------------------------------------------------
B|------------------------------------------------------
G|----5---5---5-7brp5---5-7-5----5---5-7-7b-------------
D|--7-5-7-5-7-5-7brp5-7-5-7-5--7-5-7-5-7-7b-------------
A|--7---7---7---------7--------7---7--------------------
E|------------------------------------------------------

MAIN RIFF
gtrs. 1 & 2(christian)
e|------------------------------------------------------
B|------------------------------------------------------
G|----5---5---5-7bpr5---5-7-5---------------------------  
D|--7-5-7-5-7-5-7bpr5-7-5-7-5---------------------------   X4
A|--7---7---7---------7---------------------------------
E|------------------------------------------------------

VERSE

gtrs. 1 & 2
e|------------------------------------------------------
B|------------------------------------------------------
G|--5555555555555555555555555----4----3-----------------
D|--5555555555555555555555555----4----3--MAIN RIFF X2---
A|--3333333333333333333333333----2----1-----------------
E|------------------------------------------------------

CHORUS

gtrs. 1 & 2
e|------------------------------------------------------
B|------------------------------------------------------
G|----7--------------------------------------------------
D|----7-------------7-------------------------------------
A|----5-------------7-------------------------------------
E|------------------5------------------------------------
    YOU...            ...SURE LET ME KNOW
   
e|------------------------------------------------------
B|------------------------------------------------------
G|----7-------------7-------------------------------------
D|----7-------------7-------------------------------------
A|----5-------------9-------------------------------------
E|------------------------------------------------------
    YOU...        YOU MAKE ME BLUE...

VERSE

CHORUS

SOLO 1
gtr.2
 
e|------------------------------------------------------
B|------------------------------------------------------
G|--14bbbbbbbbbbbbbbbbbb----14bbbb----14bbbbb-12--------
D|-----------------------12--------12------------14-12--
A|------------------------------------------------------
E|------------------------------------------------------

e|------------------------------------------------------
B|------------------------------------------------------
G|------------------------------------------------14----
D|---12-14-12-14brp12----------------12h14p12-14b----14-
A|14------------------14-------12-14--------------------
E|-----------------------12-15--------------------------

e|------------------------------------------------------
B|----------15b-15b-15b---------------------------------
G|----12-14-------------14-12----12-13-14---------12----
D|-14-------------------------14---------------12----12-
A|----------------------------------------14------------
E|------------------------------------------------------

e|------------------------------------------------------
B|-----------------12-14-15-----------------------------
G|----12-14-12-14------------------12-------12-14-12-14-
D|-14---------------------------12----12-14-------------
A|---------------------------14-------------------------
E|------------------------------------------------------

e|---------------------------------------------15p12----
B|-12-14-15-------15-------------15------------------15-
G|------------14b----14b-14b-14b----14b-14b-------------
D|------------------------------------------------------
A|------------------------------------------------------
E|------------------------------------------------------

e|-15p12----15p12----15p12----15b-----------------------
B|-------15-------15-------15---------------------------
G|------------------------------------------------------
D|------------------------------------------------------
A|------------------------------------------------------
E|------------------------------------------------------

BRIDGE
[ Tab from: http://www.guitartabs.cc/tabs/d/datsuns/fink_for_the_man_tab.html ]
gtr.2
gtr.1 plays chords

   .
   a5
e|-----------------------         ----------------------
B|-----------------------         ----------------------
G|-----------------------         ----------------------
D|-----------------------  X4     ------7---------------
A|-12\\\\\\\\\\\\\\\-----         ------7---------------
E|-----------------------         ------5---------------

                                             tr~~~~
e|------------------------------------------------------
B|------------------------------------------------------
G|------------------------------------------------------
D|------------------------------------------------------
A|-------------------------------------------8h(10p8)---
E|------------------------------------------------------
i seen those letters and theyre written with spit

e|-------------------10b---------------------10brp7------
B|---------------------------------------------------10-
G|------------------------------------------------------
D|------------------------------------------------------
A|------------------------------------------------------
E|------------------------------------------------------

e|------------------------------------------------------
B|--------10b-------10----------------------------------
G|------------------------9---------7-------------------
D|-----------------------------9---------9------7/////--
A|------------------------------------------------------
E|------------------------------------------------------

e|------------------------------------------------------
B|------------------------------------------------------
G|------------------------------------------------------
D|-///////////////////////////////////////////////////--
A|------------------------------------------------------
E|------------------------------------------------------

gtr.2
gtr.1 plays a5

    .
    a5
e|------------------------------------------------------
B|------------------------------------------------------
G|----5---5---5-7bpr5---5-7-5---------------------------  
D|--7-5-7-5-7-5-7bpr5-7-5-7-5---------------------------   X2
A|--7---7---7---------7---------------------------------
E|------------------------------------------------------

MAIN RIFF X4

CHORUS

SOLO 2
gtr.2
DONT STICT RIDGEDLY TO THIS. THE SOLO HAS QUITE AN IMPROVISED
FEEL AND THIS IS JUST A GUIDE AS TO THE NOTES PLAYED.
e|------------------------------------------------------
B|--15-15brp12----12-15-15b-15---------14-15brp12-------
G|-------------14---------------12-14b------------14-12-
D|------------------------------------------------------
A|------------------------------------------------------
E|------------------------------------------------------

e|--12--12--12--12--12--12--12--12---15b-15p12----12----
B|--15b-15b-15b-15b-15b-15b-15b-15b------------15----15-
G|------------------------------------------------------
D|------------------------------------------------------
A|------------------------------------------------------
E|------------------------------------------------------

e|------------15b-15b-15-12----19b-19----15-15b-15-12---
B|-12-----------------------15--------------------------
G|----14-12---------------------------------------------
D|------------------------------------------------------
A|------------------------------------------------------
E|------------------------------------------------------

e|------------------------------------------------------
B|--15-15b-12-----------------------------12-15brp12----
G|------------14-12-----------------12-14------------14-
D|----------------------12-14-12-14---------------------
A|------------------/14---------------------------------
E|------------------------------------------------------

e|--12-15-19b-19-16----16-------------------------------
B|------------------19----16-15b-12-15-12---------------
G|----------------------------------------14-12---------
D|----------------------------------------------14------
A|------------------------------------------------------
E|------------------------------------------------------

               tr~~~~~
e|------------------------------------------------------
B|------------------------------------------------------
G|------------------------------------------------------
D|-----------12h(14p12)14------------12-----------------
A|--------------------------------------14----12\-------
E|------------------------------------------------------
Comments