Dashboard Confessional - Vindicated Chords & Tabs

 

Vindicated Chords & Tabs

Dashboard Confessional Chords & Tabs

Version: 3 Type: Tab 0 ratings
1 star 2 stars 3 stars 4 stars 5 stars
comments

Vindicated Tab

   
Artist: Dashboard Confessional
Song: Vindicated
Album: Spiderman 2 Soundtrack (2004)
Tabbed by: Seth Halperin

This is basically the lead part and intro which,
surprisingly enough, hasn't been tabbed yet.
It's really very simple. Enjoy.


INTRO

     E       C#         B         A
e---------------------------------------------------|
B-88888888--8p6-66666666-4h66666--6h8-444444444--66-|
G---------------------------------------------------|
D---------------------------------------------------|
A---------------------------------------------------|
E---------------------------------------------------|

e---------------------------------------------------|
B-88888888--8p6-66666666-4h66666--6h8-444444444---6-|
G---------------------------------------------------|
D---------------------------------------------------|
A---------------------------------------------------|
E---------------------------------------------------|


VERSE
   E        C#         B         A

[ Tab from: http://www.guitartabs.cc/tabs/d/dashboard_confessional/vindicated_tab_ver_3.html ]
CHORUS
     E      A        C#        B
e---------------6----------------------6------------|
B---8p6----6------6------8p6-----6-------6----------|
G-------8-----8---------------8-----8---------------|
D---------------------------------------------------|
A---------------------------------------------------|
E---------------------------------------------------|


BRIDGE
	C#     B          C#        B

Can't make too much of the bridge lead part,
just mess around with it.
I did pick up this little part after he says
"Trace the moment, fall forever"...it that helps...:)

e--8p6----10----8----------------------------------|
B------8-------------------------------------------|
G--------------------------------------------------|
D--------------------------------------------------|
A--------------------------------------------------|
E--------------------------------------------------|


Order-
        Intro
	Verse
	Chorus
	Verse
	Chorus
	Bridge
	Chorus

That's it. A simple song from a great band.
Any questions or comments...mail me at
blackoutmusic6@yahoo.com
-Seth
Comments