Dashboard Confessional - Vindicated Chords & Tabs

 

Vindicated Chords & Tabs

Dashboard Confessional Chords & Tabs

Version: 1 Type: Chords 2 ratings
1 star 2 stars 3 stars 4 stars 5 stars
comments

Vindicated Chords

Vindicated
Dashboard Confessional

Intro/Verses: 
This is just the chords, I'm too lazy to type out the rhythms.

E--------2-----3--
a--------0--0--0--
d-0---0--0--2--0--
g-2---2--2--2--2--
b-3---3--3--3--3--
e-0h2-2-----0--0--


Chorus:
Again, just the chords, the rhythms aren't that hard to figure out.

E----3--0-----
a----0--2--0--
d-0--0--2--2--
g-2--2--0--2--
b-3--3--3--3--
e-0--0--0--0--
[ Tab from: http://www.guitartabs.cc/tabs/d/dashboard_confessional/vindicated_crd.html ]
Bridge:
No rhythems again, I already did the hard part for ya.

E-2--3--0-----
a-0--0--2--0--
d-0--0--2--2--
g-2--2--0--2--
b-3--3--3--3--
e-0--0--0--0--

"Let me slip away" part:
Same as verse

E--------2-----3--
a--------0--0--0--
d-0---0--0--2--0--
g-2---2--2--2--2--
b-3---3--3--3--3--
e-0h2-2-----0--0--

Then just a bunch of choruses. Here's the basics, you can figure 
the rest. Any questions, e-mail me at thedrummerbubble@yahoo.com

-The_Battery_Kid
Comments