Dashboard Confessional - Turpentine Chaser Chords & Tabs

 

Turpentine Chaser Chords & Tabs

Dashboard Confessional Chords & Tabs

Version: 4 Type: Tab 0 ratings
1 star 2 stars 3 stars 4 stars 5 stars
comments

Turpentine Chaser Tab

   
Dashboard Confessional
"Turpentine Chaser"

Tuning:
D A D D D D

The real tuning on the album is in D, but I tabbed the Unplugged version,  its in Db but here it is in D.

For struming, listen to song.

Verse 1
D|-----0---------0---0---------0-----0-------------------------------
D|-----0---------0---0---------0-----0-------------------------------
D|-----0---------4/--7---------4-----2-------------(4x's)------------
D|-----0---------4/--7---------4-----2-------------------------------
A|-----0---------0---0---------2-----0-------------------------------
D|-----0---------0---0---------0-----0-------------------------------

To go into Chorus its:
D|----000-------------------------------------------------------------
D|----000-------------------------------------------------------------
D|----000------(4x's right after each other---------------------------
D|----540------------------------------------------------------------
A|----555-------------------------------------------------------------
D|----000-------------------------------------------------------------

Chorus:
D|----0-------0--------0-------0------------0-------0------0-----0---
D|----0-------0--------0-------0------------0-------0------0-----0---
D|----7-------5--------4-------2----(2x's)--7-------0------5-----2---
D|----7-------5--------4-------2------------7-------5------5-----2---
A|----5-------3--------2-------0------------5-------2------3-----0---
D|----0-------0--------0-------0------------0-------0------0-----0---

D|----0-------0-------0-------0-------------------------------------- 
D|----0-------0-------0-------0-------------------------------------- 
D|----7-------4-------5-------2-----------------(1x)----------------- 
D|----7-------4-------5-------2-------------------------------------- 
A|----5-------2-------3-------0--------------------------------------
D|----0-------0-------0-------0--------------------------------------

[ Tab from: http://www.guitartabs.cc/tabs/d/dashboard_confessional/turpentine_chaser_tab_ver_4.html ]
Verse 2
D|-----0---------0---0---------0-----0-------------------------------
D|-----0---------0---0---------0-----0-------------------------------
D|-----0---------4/--7---------4-----2-------------(4x's)------------
D|-----0---------4/--7---------4-----2-------------------------------
A|-----0---------0---0---------2-----0-------------------------------
D|-----0---------0---0---------0-----0-------------------------------

To go into Chorus its:
D|----000-------------------------------------------------------------
D|----000-------------------------------------------------------------
D|----000------(4x's right after each other---------------------------
D|----540------------------------------------------------------------
A|----555-------------------------------------------------------------
D|----000-------------------------------------------------------------

Chorus:
D|----0-------0--------0-------0------------0-------0------0-----0---
D|----0-------0--------0-------0------------0-------0------0-----0---
D|----7-------5--------4-------2----(2x's)--7-------0------5-----2---
D|----7-------5--------4-------2------------7-------5------5-----2---
A|----5-------3--------2-------0------------5-------2------3-----0---
D|----0-------0--------0-------0------------0-------0------0-----0---

D|----0-------0-------0-------0-------------------------------------- 
D|----0-------0-------0-------0-------------------------------------- 
D|----7-------4-------5-------2-----------------(1x)----------------- 
D|----7-------4-------5-------2-------------------------------------- 
A|----5-------2-------3-------0--------------------------------------
D|----0-------0-------0-------0--------------------------------------

Bridge:
D|---0000-----0-0-----0-0-0-----0-0------------------------------
D|---0000-----0-0-----0-0-0-----0-0------------------------------
D|---7544-----4-4-----7-7h9-----5-5---------------(8x's till the end)
D|---7544-----4-4-----7-7h9-----5-5------------------------------
A|---0000-----2-2-----0-0-0-----0-0------------------------------
D|---0000-----0-0-----0-0-0-----0-0------------------------------


End on
D-0-
D-0-
D-0-
D-0-
A-0-
D-0-


Enoch Nora 
Laredo,Tx
Comments