Dashboard Confessional - Turpentine Chaser Chords & Tabs

 

Turpentine Chaser Chords & Tabs

Dashboard Confessional Chords & Tabs

Version: 3 Type: Tab 0 ratings
1 star 2 stars 3 stars 4 stars 5 stars
comments

Turpentine Chaser Tab

   
:Dashboard Confessional::
.Turpentine Chaser..

Tabbed By: Johnny Arson
Email: johnnyarson@punkhardcore.net

Tuning: From low to high: DADDDD

Turpentine Chaser from "The Places You Have Come To Fear The Most". This is how I play it
so I'm pretty sure it's accurate. If it isn't, oh well. Enjoy! 

Verses 1 and 2 (x4)

Well this paint has been tasting of lead
                thru
And it's not alone fleeing these walls 
D|-0--0-0-0-0--0-0-0-0--0-0-0-0-0--0-0-0-0-| 
D|-0--0-0-0-0--0-0-0-0--0-0-0-0-0--0-0-0-0-| 
D|-0--0-0-4-7--7-7-7-0--0-0-0-0-0--0-0-0-0-|
D|-0--0-0-4-7--7-7-7-9--9-9-9-9-7--7-7-7-7-|
A|-0--0-0-0-0--0-0-0-9--9-9-9-9-7--7-7-7-7-|
D|-0--0-0-0-0--0-0-0-9--9-9-9-9-7--7-7-7-7-|

Pre Chorus (x4)
D|-0-0-0-| 
D|-0-0-0-| 
D|-0-0-4-|
D|-0-5-4-|
A|-0-5-0-|
D|-0-5-0-| 


Chorus (x2) 

Sooner or later this cold
          thru
So our hands will be warm again
[And our words will be heard again]<(2nd time) 
D|--0---0--0--0--0--0---0--0--0--0-0--0-0-0-0-0--0-0-0-0-| 
D|--0---0--0--0--0--0---0--0--0--0-0--0-0-0-0-0--0-0-0-0-| 
D|--0---0--0--0--0--0---0--0--0--0-0--0-0-0-0-0--0-0-0-0-|
D|-12--12-12-12-12-10--10-10-10-10-9--9-9-9-9-7--7-7-7-7-|
A|-12--12-12-12-12-10--10-10-10-10-9--9-9-9-9-7--7-7-7-7-|
D|-12--12-12-12-12-10--10-10-10-10-9--9-9-9-9-7--7-7-7-7-|

Mid Chorus (x1) 
[ Tab from: http://www.guitartabs.cc/tabs/d/dashboard_confessional/turpentine_chaser_tab_ver_3.html ]
But all I want is not to need you
[But all I want are vows of silence]<(2nd time)
D|--0---0--0--0--0--0--0-0-0-0--0---0--0--0--0-0--0-0-0-0-| 
D|--0---0--0--0--0--0--0-0-0-0--0---0--0--0--0-0--0-0-0-0-| 
D|--0---0--0--0--0--0--0-0-0-0--0---0--0--0--0-0--0-0-0-0-|
D|-12--12-12-12-12--9--9-9-9-9-10--10-10-10-10-7--7-7-7-7-|
A|-12--12-12-12-12--9--9-9-9-9-10--10-10-10-10-7--7-7-7-7-|
D|-12--12-12-12-12--9--9-9-9-9-10--10-10-10-10-7--7-7-7-7-|

End Chorus (x1)

Now
[Now]<(2nd time)
D|--0---0--0--0--0--0---0--0--0--0-0--0-0-0-0-0--0-0-0-0-| 
D|--0---0--0--0--0--0---0--0--0--0-0--0-0-0-0-0--0-0-0-0-| 
D|--0---0--0--0--0--0---0--0--0--0-0--0-0-0-0-0--0-0-0-0-|
D|-12--12-12-12-12-10--10-10-10-10-9--9-9-9-9-7--7-7-7-7-|
A|-12--12-12-12-12-10--10-10-10-10-9--9-9-9-9-7--7-7-7-7-|
D|-12--12-12-12-12-10--10-10-10-10-9--9-9-9-9-7--7-7-7-7-|


Outro (x8) 

And the frightening facts
        thru
Will not reaquaint broken hearts to broken homes              v
D|-7-5-4-4--4-4-4-4-0--0-0-0-0-0--0-0-0-0-7-----------------7/9-5--5-5-5-5-5--5-5-5-5-| 
D|-7-5-4-4--4-4-4-4-0--0-0-0-0-0--0-0-0-0-7-----------------7/9-5--5-5-5-5-5--5-5-5-5-| 
D|-0-0-0-0--0-0-0-0-0--0-0-0-0-0--0-0-0-0-7--7-7-7-7-7--7-7-7/9-5--5-5-5-5-5--5-5-5-5-|
D|-0-0-0-0--0-0-0-0-9--9-9-9-9-9--9-9-9-9-7--7-7-7-7-7--7-7-7/9-5--5-5-5-5-5--5-5-5-5-|
A|-0-0-0-0--0-0-0-0-9--9-9-9-9-9--9-9-9-9-7--7-7-7-7-7--7-7-7/9-5--5-5-5-5-5--5-5-5-5-|
D|-0-0-0-0--0-0-0-0-9--9-9-9-9-9--9-9-9-9-7--7-7-7-7-7--7-7-7/9-5--5-5-5-5-5--5-5-5-5-|    
            {You can also hammer on the 9 on the first string.|}


Ends on 
D|-0-| 
D|-0-| 
D|-0-|
D|-0-|
A|-0-|
D|-0-|


Song order

Verse 1    x4
Pre Chorus x4
Chorus     x2
Mid Chorus x1
End Chorus x1
Verse 2    x4
Pre Chorus x4
Chorus     x2
Mid chorus x1
End Chorus x1
Outro      x8
End        x1
Comments