Dashboard Confessional - This Ruined Puzzle Chords & Tabs

 

This Ruined Puzzle Chords & Tabs

Dashboard Confessional Chords & Tabs

Version: 5 Type: Tab 0 ratings
1 star 2 stars 3 stars 4 stars 5 stars
comments

This Ruined Puzzle Tab

   
DASHBOARD CONFESSIONAL LYRICS

This Ruined Puzzle 

Tuning: Eb Ab Db Gb Bb Eb 
This is an awesome song, and within more peoples range. Enjoy it, sing it to a girl if you can. 

Strumming is 1,2345 6,78910 Listen to it, easy to pick up.

Verse 1: "This ruined puzzle..." 
eb|--0--0--0--0--0--0--| 
Bb|--0--0--0--0--1--1--| 
Gb|--2--4--2--0--0--0--| 
Db|--2--2--1--1--2--0--| 
Ab|--3--3--2--2--3--3--| 
Eb|--x--x--x--x--x--x--| 

eb|--0--0-------------------| 
Bb|--0--0----------0--------| 
Gb|--2--4----0--2-----2--0--| 
Db|--2--2--1----------------| 
Ab|--3--3-------------------| 
Eb|--x--x-------------------| 


eb|--10--12----------------------| 
Bb|--10--12--15--13--12--10--15--| 
Gb|---0---x---0---0---0---0---0--| 
Db|---9--10--13--13--12--11---0--| 
Ab|--10----------------------15--| 
Eb|------------------------------| 


Chorus - Play Twice: "But I've hidden.." 
eb|--3-----0--3--2--0--| 
Bb|--3--0--0--3--3--0--| 
Gb|--0--0--0--0--2--0--| 
Db|--0--7--2--0--0--2--| 
Ab|--2--8--3--2-----3--| 
Eb|--3--------3--------| 


Verse 2: "My basement's a coffin..." 

eb|--0--0--0--0--0--0--| 
Bb|--0--0--0--0--1--1--| 
Gb|--2--4--2--0--0--0--| 
Db|--2--2--1--1--2--0--| 
Ab|--3--3--2--2--3--3--| 
Eb|--x--x--x--x--x--x--| 

Eb|--0--0--------------------| 
Bb|--0--0-----------0--------| 
Gb|--2--4-----0--2-----2--0--| 
Db|--2--2--1-----------------| 
Ab|--3--3--------------------| 
Eb|--x--x--------------------| 


	"....now your gone, I get nothing
eb|---8--10--12--|
Bb|---8--10--12--| 
Gb|---0---0---0--| 
Db|---7---9---0--| 
Ab|---8--10--10--| 
Eb|--------------| 


   "And Your off with barely a sigh...
eb|----------------------------------------------| 
Bb|---------15---------15---------13---------13--| 
Gb|------0----------0----------0----------0------| 
Db|--13---------13---------13---------13---------| 
Ab|----------------------------------------------| 
Eb|----------------------------------------------| 

eb|--------------| 
Bb|--12--10--15--| 
Gb|---0---0---0--| 
Db|--12--11---0--| 
Ab|----------15--| 
Eb|--------------|

Chorus - Play Twice: "But I've hidden.." 
eb|--3-----0--3--2--0--| 
Bb|--3--0--0--3--3--0--| 
Gb|--0--0--0--0--2--0--| 
Db|--0--7--2--0--0--2--| 
Ab|--2--8--3--2-----3--| 
Eb|--3--------3--------|
[ Tab from: http://www.guitartabs.cc/tabs/d/dashboard_confessional/this_ruined_puzzle_tab_ver_5.html ]
	"But the hours they creep...."
eb|--10----12--|
Bb|--10----12--| 
Gb|---0-----0--| 
Db|---9-----0--| 
Ab|--10----10--| 
Eb|------------|

	"Don't be concerned"
eb|----------------------------------------------| 
Bb|---------15---------15---------13---------13--| 
Gb|------0----------0----------0----------0------| 
Db|--13---------13---------13---------13---------| 
Ab|----------------------------------------------| 
Eb|----------------------------------------------| 

eb|----------------------------------------------| 
Bb|---------12---------12---------10---------10--| 
Gb|------0----------0----------0----------0------| 
Db|--12---------12---------11---------11---------| 
Ab|----------------------------------------------| 
Eb|----------------------------------------------| 

eb|----------------------------------------------| 
Bb|---------10---------10---------10---------10--| 
Gb|------0----------0----------0----------0------| 
Db|--10---------10---------10---------10---------| 
Ab|----------------------------------------------| 
Eb|----------------------------------------------| 


eb|---8--10--| 
Bb|---8--10--| 
Gb|---0---0--| 
Db|---7---9--| 
Ab|---8--10--| 
Eb|----------|

eb|----------------------------------------------| 
Bb|---------15---------15---------13---------13--| 
Gb|------0----------0----------0----------0------| 
Db|--13---------13---------13---------13---------| 
Ab|----------------------------------------------| 
Eb|----------------------------------------------| 

eb|----------------------------------------------| 
Bb|---------12---------12---------10---------10--| 
Gb|------0----------0----------0----------0------| 
Db|--12---------12---------11---------11---------| 
Ab|----------------------------------------------| 
Eb|----------------------------------------------| 

eb|-----------------------| 
Bb|--------12---------12--| 
Gb|-----0-----------------| 
Db|----------------0------| 
Ab|--14--------14---------| 
Eb|-----------------------| 

eb|-----------------------| 
Bb|--------12---------12--| 
Gb|-----0-----------------| 
Db|----------------0------| 
Ab|--14--------14---------| 
Eb|-----------------------| 

eb|-------------------------| 
Bb|--------12---------12----| 
Gb|-----0-----------------0-| 
Db|----------------0--------| 
Ab|--14--------14-----------| 
Eb|-------------------------| 
Comments