Dashboard Confessional - The Sharp Hint Of New Tears Chords & Tabs

 

The Sharp Hint Of New Tears Chords & Tabs

Dashboard Confessional Chords & Tabs

Version: 4 Type: Tab 0 ratings
1 star 2 stars 3 stars 4 stars 5 stars
comments

The Sharp Hint Of New Tears Tab

It's my first tab so be easy on me
questions or comments e-mail me at truteno87@yahoo.com
thanks and enjoy!


Tuning:
     e string: down 1.5 steps to d flat
     B string: up 1.5 steps to d flat
     G string: down 3 steps to D flat
     D string: down .5 step to D flat
     A string: down .5 step to A flat
     E string: down 1.5 steps to D flat


/ = slide up
~ = slide down
x = muted note

Verse:
Db--0---0--0---0--0--0-|
Db--0---0--0---0--0--0-|
Db--12--12-12--0--0--0-|
Db--12--11-12--5--0--0-|
Ab--0---0--0---5--5--4-|
Db--x---x--x---5--4--2-|

Chorus:
Db--0---0-0----0---0-0-0-----0---0-0----0---0-0-0---|
Db--0---0-0----0---0-0-0-----0---0-0----0---0-0-0---|
Db--0---5-4----0---5-4-2-----0---5-4----0---5-4-2---|
Db--0---5-4----4---5-4-2-----0---5-4----4---5-4-2---|
Ab--0---0-0----2---0-0-0-----0---0-0----2---0-0-0---|
Db--0---0-0----0---0-0-0-----0---0-0----0---0-0-0---|

Solo:
Db---0--0-0----0--0-0---0--0--0--0---0--0-0----0--0-0---0--0--0--0--0---|
Db---0--4-5----0--4-5---12~11-12-0---0--4-5----0--4-5---12~11-11~15-0---|
Db---0--0-0----0--0-0---0--0--0--0---0--0-0----0--0-0---0--0--0--0--0---|
Db---0--0-0----0--0-0---12~11-12-0---0--0-0----0--0-0---12~11-11~15-7---|
Ab---5--5-5----0--0-0---0--0--0--2---5--5-5----0--0-0---0--0--0--0--7---|
Db---5--5-5----0--0-0---0--0--0--0---5--5-5----0--0-0---0--0--0--0--7---|
[ Tab from: http://www.guitartabs.cc/tabs/d/dashboard_confessional/the_sharp_hint_of_new_tears_tab_ver_4.html ]
Last Riff
Db---0----|
Ab---0----|
Db---0----|
Db---0----|
Db---0----|
Db---0----|

ORDER:
Verse x4
Chrous x4
Verse x4
Solo x1
Chrous x4
Verse x1


LYRICS:

On the way home, this car hears my confessions.
I think tonight I'll take the long way.
In this weather, the wind outside is biting.
It's left me feeling tired and exposed.
You've been asking me to bleed.
It seems these kinds of questions, they come too easy to you now.
And your lack of shame comes naturally.
I should not be surprised. I should have seen it sooner.

Expect me to apologize for things that you've done wrong.
But you're inciting others.
You're owning up to nothing and I wish that I was gone,
'cause you're not going anywhere.

And this damp air it's fighting my defroster.
My sighs they ring victorious and fog this tinted glass.
And it's clouded and so is my head.
The hint of these new tears are sharp I try to choke them back.
But it's useless. I am useless against them.
They are beating me with ease.

On the way home this car hears my confessions.
I think tonight I'll take the long way.

Expect me to apologize for things that you've done wrong.
While you're inciting others.
You're owning up to nothing and I wish that I was gone,
'Cause you're not going anywhere.

On the way home this car hears my confessions.
I think tonight I'll take the long way.
Comments