Dashboard Confessional - The Places You Have Come To Fear The Most Chords & Tabs

 

The Places You Have Come To Fear The Most Chords & Tabs

Dashboard Confessional Chords & Tabs

Version: 1 Type: Tab 0 ratings
1 star 2 stars 3 stars 4 stars 5 stars
comments

The Places You Have Come To Fear The Most Tab

   
Dashboard Confessional
The Places You Have Come to Fear the Most
Tuning: EbAbDbGbBbEb
Strumming patterns not given
Tabbed by Andrew (kraftkid87@hotmail.com)

Intro
Eb-----------------------------
Bb-0--0--0--0---0--0--0--0-0-0-
Gb-0--0--0--0---0--0--0--0-0-0-
Db-9--10-10-4---9--10-10-5-4-2-then arpeggiate this 
Ab-10-10-12-5---10-10-x--7-5-3-last chord (x3200x
Eb--------------------12-------

Verse
Eb-------0-0-0-
Bb-0--0--7-0-7-
Gb-0--0--7-5-7-
Db-9--10-0-7-0-
Ab-10-10-0-0-0-
Eb-------------
[ Tab from: http://www.guitartabs.cc/tabs/d/dashboard_confessional/the_places_you_have_come_to_fear_the_most_tab.html ]
Chorus (starting with,"Well this is one time...")
Eb-0--0--7--10---------7-10---------------
Bb-0--7--0--8---0-0-0--0-8---0-0-0--0-0-0-
Gb-5--7--0--0---0-0-0--0-0---0-0-0--0-0-0-
Db-7--0--5--0---5-4-2--5-0---5-4-2--5-4-2-
Ab-0--0-----10--7-5-3----10--7-5-3--7-5-3-
Eb----------------------------------------

Outro(you can fake it hard enough to please..)
play this then play the intro again and fade out
Eb-3--x--0--3-3--x--0--3--0--x--3--0--x--3-
Bb-0--3--0--3-0--3--0--3--0--3--3--0--3--3-
Gb-0--2--0--0-0--2--0--0--0--2--0--0--2--0-
Db-0--0--2--x-0--0--2--x--2--0--x--2--0--x-
Ab-2--x--2--3-2--x--2--3--2--x--3--2--x--3-
Eb-3--2--0----3--2--0-----0--2-----0--2----
Comments