Dashboard Confessional - The Brilliant Dance Chords & Tabs

 

The Brilliant Dance Chords & Tabs

Dashboard Confessional Chords & Tabs

Version: 1 Type: Tab 0 ratings
1 star 2 stars 3 stars 4 stars 5 stars
comments

The Brilliant Dance Tab

Dashboard Confessionals
“The Brilliant Dance”
Tabbed by: E. Abes
Tuning: ½ step down, D5 (DADADD)



Figure 1 (Verse)
D|--0----------0------------0-----------------------------
D|--0----------0------------0-----------------------------
A|--3----------5-----------10-----------------------------
D|--0----------0------------0-----------------------------
A|--4----------5-----------10-----------------------------
D|--0-----------------------------------------------------              So this is odd………
Figure 2 (Chorus)
|--0--------------0--------------0------------0----------
|--0--------------0--------------0------------0----------
|--0--------------0--------------0------------0----------
|--7--------------7--------------0------------7----------
|--5--------------5--------------2------------5----------
|-----------------5--------------2------------5----------
 …buried all your lovers…..
Figure 3 (Bridge)
|--0----0----0----0---------
|--0----0----0----0---------
|--0----0----0----0---------
|--0----0----0----0---------
|--2----4----5----7---------
|--2----4----5----7---------
[ Tab from: http://www.guitartabs.cc/tabs/d/dashboard_confessional/the_brilliant_dance_tab.html ]
Figure 4 (Verse)
|---0---0--0--0------------------------------------------
|---0---0--0--0------------------------------------------
|---5---4--2--0------------------------------------------
|---0---0--0--0------------------------------------------
|---5---5-----0------------------------------------------
|--------------------------------------------------------
 This is incredible…
|---0------0---------------------------------------------
|---0------0---------------------------------------------
|---0------0---------------------------------------------
|---0------5---------------------------------------------
|---2------3---------------------------------------------
|---2----------------------------------------------------
 Yes this is love for the first time…
|---0---0-----------0----------------------0--------0----
|---0---0-----------0----------------------0--------0----
|---0---0-----------0----------------------0--------0----
|---7---7-----------7----------------------7--------5----
|---4---5-----------5----------------------5--------3----
|-------------------0----------------------5-------------
  for the first time…       This is the last time

|-0-----------------
|-0----------------
|-0-----------------
|-0-----------------
|-0-----------------
|-0-----------------
Comments