Dashboard Confessional - Standard Lines Chords & Tabs

 

Standard Lines Chords & Tabs

Dashboard Confessional Chords & Tabs

Version: 8 Type: Tab 0 ratings
1 star 2 stars 3 stars 4 stars 5 stars
comments

Standard Lines Tab

   
-----------------------------------------------------------------------------
*****************************************************************************
Dashboard Confessional - Standard Lines (Places You Have Come to Fear The Most)
Tabbed by: Franklin Dean
*****************************************************************************
-----------------------------------------------------------------------------
TUNING: Standard tuning half step down (flat tuning)
 6  5  4  3  2  1   (String Number)
|Eb|Ab|Db|Gb|Bb|Eb| (Low to high)
-----------------------------------------------------------------------------
NOTE: Some of you beginners may have trouble learning the intro, as it has some weird
finger positioning that you may have never done before. Simply learn the chords first
and then come back later and learn the intro. It also helps to break it up into
different parts. I make this tab assuming that you know little or nothing about
guitars and have therefore made this tab understandable to guitarists of all levels.
-----------------------------------------------------------------------------
DIFFICULTY LEVEL: Medium to Medium Hard.
-----------------------------------------------------------------------------

INTRO - / or \ means to slide to next note. 
TIP: Learn the intro in two parts, the top, then the bottom.

eb|-----------------------------------------------------------0---------|
Bb|-------0---------------------------------------------------------0---|
Gb|-----------1-2-1-------2-----2-1---------1-2-1---------1/2---1/2-----|
Db|-----2-----------2---------0-----2-----2-------2-----2---------------|
Ab|---------0-----------4---0-----------0-------------0-----------------|
Eb|---0---------------0---------------2-------------2-------------------|

eb|-----------------------------------------0---------0---------|
Bb|-----------------------0-------------------------0---0-------|
Gb|---------------------------------------2-------5-------5-----|
Db|-------9---6\4/6\4-4\2---2-4/6\4\2---4-------7-----------7---|
Ab|-----7---0-------------------------4-------7-----------------|
Eb|---0---------------------------------------------------------|

-----------------------------------------------------------------------------

VERSE 1: X's indicate muted strings. Repeat these two riffs twice.
TIP: Mute the strings by putting your fingers at a low angle.

eb|---x---x---0---|   eb|---x---x---0--0--0---|
Bb|---x---x---0---|   Bb|---x---x---0--0--0---|
Gb|---13--14--6---|   Gb|---13--14--4--6--2---|
Db|---x---x---6---|   Db|---x---x---4--6--2---|
Ab|---11--12--0---|   Ab|---11--12--0--0--0---|
Eb|---0---0---0---|   Eb|---0---0---0--0--0---|

-----------------------------------------------------------------------------

CHORUS: Tricky strumming pattern.
TIP: For you beginners, watch out for the barring.

eb|---0--2--0---x---x---x---x---x---x---0--0---|
Bb|---0--2--0---x---x---x---x---x---x---0--0---|
Gb|---1--2--6---14--13--11--9---11--8---4--2---|
Db|---2--4--6---x---x---x---x---x---x---4--2---|
Ab|---2--4--0---12--11--9---7---9---6---0--0---|
Eb|---0--2--0---0---0---0---0---0---0---0--0---|

-----------------------------------------------------------------------------
[ Tab from: http://www.guitartabs.cc/tabs/d/dashboard_confessional/standard_lines_tab_ver_8.html ]
BREAK - / or \ means to slide to next note. 
TIP: Learn the intro in two parts, the top, then the bottom.

eb|-----------------------------------------------------------0---------|
Bb|-------0---------------------------------------------------------0---|
Gb|-----------1-2-1-------2-----2-1---------1-2-1---------1/2---1/2-----|
Db|-----2-----------2---------0-----2-----2-------2-----2---------------|
Ab|---------0-----------4---0-----------0-------------0-----------------|
Eb|---0---------------0---------------2-------------2-------------------|
                                                          *Strum
eb|-----------------------------------------0---------0---------|
Bb|-----------------------0-------------------------0---0-------|
Gb|---------------------------------------2-------5-------5-----|
Db|-------9---6\4/6\4-4\2---2-4/6\4\2---4-------7-----------7---|
Ab|-----7---0-------------------------4-------7-----------------|
Eb|---0---------------------------------------------------------|

-----------------------------------------------------------------------------

VERSE 2: X's indicate muted strings. Repeat these two riffs twice.
TIP: Mute the strings by putting your fingers at a low angle.
                                                 *                    *
eb|---x---x---0---|   eb|---x---x---0--0--0---|   eb|--0-------0------
Bb|---x---x---0---|   Bb|---x---x---0--0--0---|   Bb|----0-------0----
Gb|---13--14--6---|   Gb|---13--14--4--6--2---|   Gb|------6-------6--
Db|---x---x---6---|   Db|---x---x---4--6--2---|   Db|--------6--------
Ab|---11--12--0---|   Ab|---11--12--0--0--0---|   Ab|-----------------
Eb|---0---0---0---|   Eb|---0---0---0--0--0---|   Eb|-----------------

*Do this roll after playing the first riff for the second time.*
-----------------------------------------------------------------------------

CHORUS: Tricky strumming pattern.
TIP: For you beginners, watch out for the barring.

eb|---0--2--0---x---x---x---x---x---x---0--0---|
Bb|---0--2--0---x---x---x---x---x---x---0--0---|
Gb|---1--2--6---14--13--11--9---11--8---4--2---|
Db|---2--4--6---x---x---x---x---x---x---4--2---|
Ab|---2--4--0---12--11--9---7---9---6---0--0---|
Eb|---0--2--0---0---0---0---0---0---0---0--0---|

-----------------------------------------------------------------------------

ENDING - / or \ means to slide to next note. 
TIP: Play slowly to add emotion

eb|-----------------------------------------------------------0---------|
Bb|-------0---------------------------------------------------------0---|
Gb|-----------1-2-1-------2-----2-1---------1-2-1---------1/2---1/2-----|
Db|-----2-----------2---------0-----2-----2-------2-----2---------------|
Ab|---------0-----------4---0-----------0-------------0-----------------|
Eb|---0---------------0---------------2-------------2-------------------|
                                                          
eb|-----------------------------------------0---------0---------|--0--|
Bb|-----------------------0-------------------------0---0-------|--0--|
Gb|---------------------------------------2-------5-------5-----|--1--|
Db|-------9---6\4/6\4-4\2---2-4/6\4\2---4-------7-----------7---|--2--|
Ab|-----7---0-------------------------4-------7-----------------|--2--|
Eb|---0---------------------------------------------------------|--0--|

-----------------------------------------------------------------------------
Comments