Dashboard Confessional - Standard Lines Chords & Tabs

 

Standard Lines Chords & Tabs

Dashboard Confessional Chords & Tabs

Version: 6 Type: Tab 0 ratings
1 star 2 stars 3 stars 4 stars 5 stars
comments

Standard Lines Tab

Dashboard Confessional
"The Standard Lines"
From: The Places That You've Come To Fear The Most(Vagrant Records)

Tuning: Eb (EbAbDbGbBbEb)

Please note that the rythms in this tab aren't exact.

Intro:
Eb|-------------------------------------------------------------------------|
Bb|------------------------------------------------------0------------------|
Gb|-----4----1-2-1----------2--------2--1-----------1-2-----2-1-------------|
Db|---2-------------2----2--------0--------2-----2--------------------2-----|
Ab|-------0--------------------0-----------------------------------0--------|
Eb|-0-----------------0-----------------------2-----------------2-----------|

Eb|------0------------------------------------------------------------------|
Bb|--------------0----------------------------0-----------------------------|
Gb|-1h2-----1h2-----------4-------------------------------------------------|
Db|--------------------2--------6\4\6\4--4h2-----2--4\6\4h2-----------------|
Ab|--------------------------0----------------------------------------------|
Eb|-----------------0-------------------------------------------------------|

Eb|-------------0---------------0-------------------------------------------|
Bb|-----------------------1--0-----0--1-------------------------------------|
Gb|----------2---------2-----------------2----------------------------------|
Db|-------4---------2-------------------------------------------------------|
Ab|----4--------------------------------------------------------------------|
Eb|-------------------------------------------------------------------------|
[ Tab from: http://www.guitartabs.cc/tabs/d/dashboard_confessional/standard_lines_tab_ver_6.html ]
Verses:
Eb|---------------------0--------------------0--0--0--0---------------------|
Bb|---------------------0--------------------0--0--0--0---------------------|
Gb|--13-13-13-14-13-0---6--13-13-13-14-13-0--4--6--2--2---------------------|
Db|--x--x--x--x--x--0---6--x--x--x--x--x--0--4--6--2--2---------------------|
Ab|--11-11-11-12-11-0---0--11-11-11-12-11-0--0--0--0--0---------------------|
Eb|--0--0--0--0--0--0------0--0--0--0--0--0---------------------------------|
                         |---------| 2nd verse only              P.M| 
Eb|-------------------0--0-------------------------------0--0--0--0--0------|
Bb|-------------------0----0-------0---------------------0--0--0--0--0------|
Gb|-13-13-13-14-13-0--6------6---6---6-13-13-13-14-13-0--4--6--2--2--2------|
Db|-x--x--x--x--x--0--6--------6-------x--x--x--x--x--0--4--6--2--2--2------|
Ab|-11-11-11-12-11-0--0----------------11-11-11-12-11-0--0--0--0--0--0------|
Eb|-0--0--0--0--0--0-------------------0--0--0--0--0--0---------------------|

Chorus:
Eb|-0-0-0----------------------0-|   
Bb|-0-0-0----------------------0-|
Gb|-1-2-6--14-13-11-9--11-11\--6-|       Repeat This 2 Times.
Db|-2-4-6--x--x--x--x--x--x-\--6-|
Ab|-2-4-0--12-11-9--7--9--9-\--0-|
Eb|-0------0--0--0--0--0--0-\----|


Order w/ Lyrics

Intro

Verse1: "Which of the bold faced lies will we use? I hope that you're happy, you
really deserve it, this will be best for us both in the end."

Chorus: "But your taste still lingers on my lips like I just placed them upon yours
and I starve for you. But this new diet's liquid and dulling to the senses.
And it's crude but it will do."

Intro

Verse2: "Which of the standard lines will we use? I've been meaning to call you.
I've just been so busy. We'll catch up soon. Let's make it a point to."

Chorus: "But your taste still lingers on my lips like I just placed them upon yours
and I starve for you. But this new diet's liquid and dulling to the senses. And it's crude but it will do."

Intro
Comments