Dashboard Confessional - Standard Lines Chords & Tabs

 

Standard Lines Chords & Tabs

Dashboard Confessional Chords & Tabs

Version: 2 Type: Tab 0 ratings
1 star 2 stars 3 stars 4 stars 5 stars
comments

Standard Lines Tab

   
Standard Lines

There shows no timing in this tab.
TUNING : Eb Ab Db Gb Bb Eb 

Intro
Eb-------------------------------------------------|
Bb-------------------------------------------------| 
Gb--------------------------------2-------2--1-----| 
Db----------9-----6-7-6------------------0-----2---|
Ab------7-----0---------7------4--------0----------|
Eb---0------------------------0--------------------|

Eb:|---------------------------------0-------------|
Ab:|--------------------------------------0--------| 
Db:|---------1--2--1-------------1/2---1/2---------| 
Gb:|-----2-------------2-------2-------------------|
Bb:|---0---------------------0---------------------|
Eb:|-2---------------------2-----------------------|

Eb-----------------------------------------------------------0----------0---------
Bb-----------------------------0------------------------------------1-0---0-1-----|
Gb-------------------------------------------------------2--------2-----------2---|
Db--------9-----6\4\6\4--4\2-----2--4\6\4\2--4-------4----------2-----------------|
Ab-----7----0-------------------------------------4-------------------------------|
Eb---0----------------------------------------------------------------------------|

Verse
"Which of the bold face lies will we use?... "
Eb--x------x------x------0------------------------------------| 
Bb--x------x------x------0------------------------------------| 
Gb--13----13-----14------6------------------------------------| 
Db--x------x------x------6------------------------------------| 
Ab-11-----11-----12------0------------------------------------| 
Eb--0------0------0------x------------------------------------| 

........we use? I hope that you're happy, you really deserve it 
Eb--------x------x-----x-----x-----0--0--0-------------------------| 
Bb--------x------x-----x-----x-----0--0--0-------------------------| 
Gb-------13-----13----14----13-----4--6--2-------------------------| 
Db--------x------x-----x-----x-----4--6--2-------------------------| 
Ab-------11-----11----12----11-----0--0--0-------------------------|
Eb--------0------0-----0-----x------x--x--x------------------------| 



[ Tab from: http://www.guitartabs.cc/tabs/d/dashboard_confessional/standard_lines_tab_ver_2.html ]
.............This will be best for us both in the end 
Eb--x-----x-----x------0------------------------------------ |
Bb--x-----x-----x------0------------------------------------ |
Gb--13----13---14------6-------------------------------------|
Db--x------x----x------6-------------------------------------|
Ab--11----11---12------0-------------------------------------|
Eb--0-----0-----0------x------------------------------------ |

Eb--------x---------x---x----x-----0--0--0------------------ |
Bb--------x---------x---x----x-----0--0--0------------------ |
Gb-------13---------13--14--13-----4--6--2-------------------|
Db--------x---------x---x---x------4--6--2------------------ |
Ab-------11---------11--12--11-----0--0--0-------------------|
Eb--------0---------0----0---0-----x--x--x------------------ |

Chorus 1: 

But your taste still lingers on my lips like I just placed them upon yours 
Eb--------0-----------------0------------------0-------------------- |
Bb--------0-----------------0------------------0-------------------- |
Gb--------1-----------------2------------------6-------------------- |
Db--------2-----------------4------------------6-------------------- |
Ab--------2-----------------4------------------0-------------------- |
Eb--------0-----------------2------------------x-------------------- |

and I starve,............I starve for you 
Eb---------x--x--x--x-----x--x--0--------------------------------------|
Bb---------x--x--x--x-----x--x--0--------------------------------------|
Gb---------14-13-11-9-----11-8--6--------------------------------------|
Db---------x--x---x-x-----x--x--6--------------------------------------|
Ab---------12-11--9--7----9--6--0--------------------------------------|
Eb---------0--0---0--0----0--0--x--------------------------------------|

......But this new diet's liquid and dulling to the senses 
Eb-------0---------------0-----------0-------------------- |
Bb-------0---------------0-----------0-------------------- |
Gb-------1---------------2-----------6-------------------- |
Db-------2---------------4-----------6-------------------- |
Ab-------2---------------4-----------0-------------------- |
Eb-------0---------------2-----------x-------------------- |

| and it's crude,..........but it willllll do 
Eb--------x--x--x--x------x--x--0-------------------------------------|
Bb--------x--x--x--x------x--x--0-------------------------------------|
Gb--------14-13-11-9------11-8--6-------------------------------------|
Db--------x--x---x-x------x--x--6-------------------------------------|
Ab--------12-11--9--7-----9--6--0-------------------------------------|
Eb--------0--0---0--0-----0--0--x-------------------------------------|
Comments