Dashboard Confessional - So Beautiful Chords & Tabs

 

So Beautiful Chords & Tabs

Dashboard Confessional Chords & Tabs

Version: 2 Type: Chords

So Beautiful Chords

   
-------------------------------------------------------------------------------
                     SO BEAUTIFUL - Dashboard Confessional                     
-------------------------------------------------------------------------------
Tabbed by: Robert Piller
Email: nothin7@hotmail.com

The other tab of this song, while pretty, doesn't match the song very well.
This tab sounds damn good and works well with only one guitar. Have at it.

Tuning: Standard, down 1/2 step
[ Tab from: http://www.guitartabs.cc/tabs/d/dashboard_confessional/so_beautiful_crd_ver_2.html ]
Chords (I used numbers for convenience--I realize G1 is G#m whatever...):
     A1 B1 B2 B3 C1 E1 E2 G1 G2 G3 
eb|--0--0--0--0--0--0--0--0--0--0--|
Bb|--0--0--0--0--0--0--0--0--0--0--|
Gb|--6--8--4--4--6--1--1--5--4--4--|
Db|--7--9--4--1--6--2--2--6--6--6--|
Ab|--7--9--2--2--4--2--0--6--6--0--|
Eb|--5--7-----------0-----4--------|

Intro:
B1 B1 G3 E2 B2 B3 B2 G2

Verse ("I heard that you were home again..."):
B1 B1 G2 G2 C1 C1 E1 E1

Chorus ("Careful now, you're so beautiful..."):
B1 B1 G1 G1 E1 E1 E1 E1

Bridge ("As soon as you've got it..."):
B1 B1 G1 G1 E1 E1 G1 A1