Dashboard Confessional - Several Ways To Die Trying Chords & Tabs

 

Several Ways To Die Trying Chords & Tabs

Dashboard Confessional Chords & Tabs

Version: 2 Type: Tab 0 ratings
1 star 2 stars 3 stars 4 stars 5 stars
comments

Several Ways To Die Trying Tab

*Standard Tuning, 1/2 step down

Intro
E------------------------------------------------------------------
B------------------------------------------------------------------
G-------9-----------------------------------------------------9----
D-------9----------------------6------------------------------9----
A-------7-------7-6---------------7--7/9/7/9/7-7/9------------7----
E----0--7-----7-------------7-----------------------8-7----0--7----


E-----------------------------------------------------------------
B-----------------9--9--9--9--9-----------------------------------
G-----------------9--9--9--9--9--9--9-----------------------------
D-------------6---9--9--9--9--9--9--9-----------------------------
A------7-6-----------------------7--7---7/9/7/9/7-7/9-------------
E----7------7-----------------------------------------8-7---------

Pre Chorus (Timing is tricky in this part, listen for changes)
E----------------------------------------------------------------
B----------------------------------------------------------------
G----9--9-----13--11--9--------11--9-----------------------------
D----9--9--7--13--11--9--7--9--11--9-----------------------------
A----7--6--7--11--9---7--7--9--9---7-----------------------------
E----------5-------------5--7------------------------------------
[ Tab from: http://www.guitartabs.cc/tabs/d/dashboard_confessional/several_ways_to_die_trying_tab_ver_2.html ]
Chorus
E----------------------------------------------------------------
B----------------------------------------------------------------
G---9-----14----9----11---9--------------------------------------
D---9-----14----9----11---9--------------------------------------
A---7-----12----7----9----7--------------------------------------
E----------------------------------------------------------------


Breakdown Part
E----------------------------------------------------------------
B----------------------------------------------------------------
G--------9--9----------------------------------------------------
D-----7--9--9--9-------------------------------------------------
A-----7--7--6--9-------------------------------------------------
E-----5--------7-------------------------------------------------


Winding Down (1st Part)
E--------------------------------------------------------------
B--------------------------------------------------------------
G--------------------------------------------------------------
D-----9--11--9--7--6-------------------------------------------
A--7------------------7--9--7----------------------------------
E--------------------------------------------------------------

End (x2)
E----------------------------------------------------------------
B----------------------------------------------------------------
G----------------------------------------------------------------
D----------------------------------------------------------------
A--7--11--9--11--9--7--7--6--7-----11--9--11--9--7--11--12--14---
E----------------------------------------------------------------
          
Most of the song is just a variation of the "Intro," and it is the stuff
in the background that changes mostly.  Most of the chords are pretty close,
the strumming patterns are not too hard to find.
Comments