Dashboard Confessional - Saints And Sailors Chords & Tabs

 

Saints And Sailors Chords & Tabs

Dashboard Confessional Chords & Tabs

Version: 1 Type: Tab 2 ratings
1 star 2 stars 3 stars 4 stars 5 stars
comments

Saints And Sailors Tab

-------------------------------------------------------------------------------
                    SAINTS & SAILORS - Dashboard Confessional
-------------------------------------------------------------------------------
By: Tim : Impossibletim@aol.com
Tuning: Half Step Down
DAGDAD
strumming pattern isn't tabbed just the order of the chords with partial lyrics to help known where each part starts.

VERSE1  
d]----------------------------------0------------------------------0----------------------------------------------|
a]----------------------------------0------------------------------0----------------------------------------------|
g]--------0--2--------0--2----------7------------------------------14--------------------------11--------9------7-|
d]-----0------------0---------------7------------------------------14--------------------------9---------7------5-|
a]--2-------------0-----------------5------------------------------12--------------------------9---------7------5-|
D]---------------------------------------------------------------------------------------------9---------7------5-|

    
d|--0-------------------------------0-----------------------------------------|
a|--0-------------------------------0-----------------------------------------|
g|--7------------------------------14----------11-----9------7-------------9--|
d|--7------------------------------14-----------9-----7------5-------------7--|
a|--5------------------------------12-----------9-----7------5-------------7--|
D|----------------------------------------------9-----7------5-------------7--|

Chorus
d|-----------------------------------------------------------------------------------------------------------------|
a|-----------------------------------------------------------------------------------------------------------------|
g|---7------------------------------------------------------------------7----------------------------0-2-------0--2|
d|---7---------------------------5------------7-------------------------7----------5--------------0----------0-----|
a|---5---------------------------5------------7-------------------------5----------5-----------2-----------0-------|
D|-------------------------------5------------7------------------------------------5-------------------------------|



d|-----------------------------------------------------------------------------------------------------------------|
a|-----------------------------------------------------------------------------------------------------------------|
g|---7------------------------------------------------------------------7----------------------------0-2-------0--2|
d|---7---------------------------5------------7-------------------------7----------5--------------0----------0-----|
a|---5---------------------------5------------7-------------------------5----------5-----------2-----------0-------|
D|-------------------------------5------------7------------------------------------5-------------------------------|

[ Tab from: http://www.guitartabs.cc/tabs/d/dashboard_confessional/saints_and_sailors_tab.html ]
VERSE2  
d]--------0------------------------------0---------------------------------------------|
a]--------0------------------------------0---------------------------------------------|
g]--------7-----------------------------14--------------------------11--------9------7-|
d]--------7-----------------------------14--------------------------9---------7------5-|
a]--------5-----------------------------12--------------------------9---------7------5-|
D]------------------------------------------------------------------9---------7------5-|

    
d|--0-------------------------------0----------------------------------------|
a|--0-------------------------------0----------------------------------------|
g|--7------------------------------14----------11----9------7-------------9--|
d|--7------------------------------14-----------9----7------5-------------7--|
a|--5------------------------------12-----------9----7------5-------------7--|
D|----------------------------------------------9----7------5-------------7--|

Chorus 2
d|-----------------------------------------------------------------------------------------------------------------|
a|-----------------------------------------------------------------------------------------------------------------|
g|---7------------------------------------------------------------------7----------------------------0-2-------0--2|
d|---7---------------------------5------------7-------------------------7----------5--------------0----------0-----|
a|---5---------------------------5------------7-------------------------5----------5-----------2-----------0-------|
D|-------------------------------5------------7------------------------------------5-------------------------------|



d|------------------------------------------------------------------------------------------|
a|------------------------------------------------------------------------------------------|
g|---7--------------------------------------------------------------------7-----------------|
d|---7---------------------------5------------7-------------------------7----------5--------|
a|---5---------------------------5------------7-------------------------5----------5--------|
D|-------------------------------5------------7------------------------------------5--------|



BRIDGE
palm muted.
d|----------------------------------------------------------------------|
a|----------------------------------------------------------------------|
g|-11----12------11-----9----12-----9-----------------------------------|
d|--9-----10------------------------------------------------------------|
a|--9-----10------9-----7----10-----7-----------------------------------|
D|--9-----10------9-----7----10-----7-----------------------------------|



palm muted.
d|-------------------------------------------------------------------|
a|-------------------------------------------------------------------|
g|-11----12------11-----9-----7--------------------------------------|
d|--9-----10------------------5--------------------------------------|
a|--9-----10------9-----7-----5--------------------------------------|
D|--9-----10------9-----7-----5--------------------------------------|


palm muted.
d|--------------------------------------------------------------------------------|
a|--------------------------------------------------------------------------------|
g|-11----------------9-------------7------9----------11-------9--------7----------|
d|--9----------------7-------------5------7----------9--------7--------5----------|
a|--9----------------7-------------5------7----------9--------7--------5----------|
D|--9----------------7-------------5------7----------9--------7--------5----------|

repeat chourus one time
and the first part of the bridge 

ending
d]-------------------------------------0----|
b]-------------------------------------0----|
g]---------0--2------------0--2-----7-------|
d]-----0----------------0-------------7-----|
a]-2----------------0-----------------5-----|
D]-------------------------------------0----|
Comments