Dashboard Confessional - Remember To Breathe Chords & Tabs

 

Remember To Breathe Chords & Tabs

Dashboard Confessional Chords & Tabs

Version: 1 Type: Tab 1 rating
1 star 2 stars 3 stars 4 stars 5 stars
comments

Remember To Breathe Tab

   
Artist: Dashboard Confessional
Song: Remember To Breathe (Unplugged)
Album: Dashboard Confessional (MTV Unplugged)
Submitted By: Franko
Tuning: Standard/Tune Down 1/2 A Step Or Lower


x=Scratch/Dead Note
/=Slide
p=Pull
h=Hammer
()=Hold Note/Let Ring



Intro
GTR I
E---------------------------------------
B-----0-0-0-0-0-0-0-0-0-0---------------
G-----4-4-4-4-4-4-4-4-4-4---------------
D-----2-2-2-2-2-2-2-2-2-2---------------
A-----4-4-0-0-x-x-x-x-x-x---------------
E-------------4-4-0-0-0-0---------------


GTR II
E-------0-----0--9--0-----0---------------------0-----0---
B-----4-----4-----------4---5/7p5-5-5p4-------4-----4-----
G---4-----4-----------4---------------------6-----6-------
D---------------------------------------------------------
A---------------------------------------------------------
E---------------------------------------------------------

E----9---------9--------------9-----------------------
B-------12-------12------------12---11--9-------------
G--9---------9--------------9-----------------12------
D-----------------------------------------------------
A-----------------------------------------------------
E-----------------------------------------------------

GTR I
Verse:
E---------------------------------------
B-----0-0-0-0-0-0-0-0-0-0---------------
G-----4-4-4-4-4-4-4-4-4-4---------------
D-----2-2-2-2-2-2-2-2-2-2---------------
A-----4-4-0-0-x-x-x-x-x-x---------------
E-------------4-4-0-0-0-0---------------


Never Too......Muuuuch
E--------------------------------------------------------------
B------------0-----------0-------0---------0--------0------0---
G--------9-----------9------------------9---------9------------ 
D---11----------11---------11-----11--------11-------11-------- 
A-------------------------------------------------------------- 
E-------------------------------------------------------------- 

E------9------------9---------------------0-------------------- 
B----------12----------12-------------4-----5------------------ 
G----------------9------------------6-------------------------- 
D-------------------------------------------------------------- 
A-------------------------------------------------------------- 
E-------------------------------------------------------------- 


I Try On My Blue Shirt.....
E--------------------
B------4--(5)--------
G--------------------
D--------------------
A--------------------
E--------------------



(Keyboard Arr. For Guitar)
She Told Me She Liked It........Once
[ Tab from: http://www.guitartabs.cc/tabs/d/dashboard_confessional/remember_to_breathe_tab.html ]
E---7----11---12-----------7----11---12------(14)--(12)--(11)---(7)-
B-------------------------------------------------------------------
G-------------------------------------------------------------------
D-------------------------------------------------------------------
A-------------------------------------------------------------------
E-------------------------------------------------------------------

She Wonders What Ill Wear...
E-----------0----------0---------0-------------------------
B-------4----------4---------4-----------------------------
G---6----------6---------6---------------------------------
D----------------------------------------------------------
A----------------------------------------------------------
E----------------------------------------------------------

Some Sneekers Or Flipflops.....
E---------------------9-----9----7------------------------
B----9------9-----9---------------------------------------
G-9-----9------9--------------------9---------------------
D---------------------------------------------------------
A--------------------------------------------------------- 
E---------------------------------------------------------

Im Starting To Panic.......(Wait, Wait)
E---12---11---9---7------------------
B------------------------------------ 
G------------------------------------
D------------------------------------ 
A------------------------------------ 
E------------------------------------ 

Remember She Asked You........
E--------------(0)-----------------0---------
B---4h5p4------------4h5p4------4------------
G-----------6----------------6---------------
D--------------------------------------------
A--------------------------------------------
E--------------------------------------------


Drums Kick In Pick Fast:
E---12--------12-----11-----11----11------9-----9-----11-----11------11-----
B-------9--------9------9-----9------9------9-----9-----9-------9------9----
G----------9-------9------9-----9------9------9----9------9-------9-----9---
D---------------------------------------------------------------------------
A---------------------------------------------------------------------------
E---------------------------------------------------------------------------


E--0-----0-----0--------------
B----5-----5-----5------------
G------4-----4-----4----------
D-----------------------------
A-----------------------------
E-----------------------------

E---------------------------------------
B----7---7--7----9---7--7-7-7--7--------
G---------------------------------------
D---------------------------------------
A---------------------------------------
E---------------------------------------

GTR I (Okay..)
E----------------------------------
B-----0-0-0-0----------------------
G-----4-4-4-4----------------------
D-----2-2-2-2----------------------
A-----4-4-0-0----------------------
E-------------4-5-4-(0)------------
Comments