Dashboard Confessional - Remember To Breathe Chords & Tabs

 

Remember To Breathe Chords & Tabs

Dashboard Confessional Chords & Tabs

Version: 1 Type: Bass Tab 0 ratings
1 star 2 stars 3 stars 4 stars 5 stars
comments

Remember To Breathe Bass Tab

Dashboard Confessional - Remember To Breath
Tabbed By: Kale Arndt
EMail: Jedijinn64@hotmail.com
Album: MTV Unplugged
Bassist: Dan BoneBreak

|-----------------------------------|
|-----------------------------------|
|-4---44-0--00-000--------0--00-000-|
|------------------4---44-----------|

|-----------------------------------
|-----------------------------------|
|-4---44-0--00-000------------------|
|------------------4-0-4-0-00-000---|
[ Tab from: http://www.guitartabs.cc/tabs/d/dashboard_confessional/remember_to_breathe_btab.html ]
Play this for the whole song. Listen to the MTV Performance
For the exact timing. At the end of th song leave off the last 
|00-000|

If you can't get it that way Just play the below part to 
which follows the guitar and sounds ok.

|----------------------------------|
|----------------------------------|
|-4-4-4-0--00-000--------0--00-000-|
|------------------4-4-4-----------|

|----------------------------------|
|----------------------------------|
|-4-4-4-0--0-000-------------------|
|------------------4-0-4-0-00-000--|
Tabed By Kale "Ender" Arndt
Jedijinn64@hotmail.com
Comments