Dashboard Confessional - New Year Project Chords & Tabs

 

New Year Project Chords & Tabs

Dashboard Confessional Chords & Tabs

Version: 1 Type: Tab 0 ratings
1 star 2 stars 3 stars 4 stars 5 stars
comments

New Year Project Tab

   
Band - Dashboard Confessional
Song - New Year Project

Intro/verse: 
E|--------------------------------------------------------------------------------| 
B|--3------3-----3-----3-----5/7----8-----8-----8----8-----10------10-----10------| 
G|----0------0-----0-----0------------0-----0-----0----0------0-------0------0----| 
D|-------0------0-----0-----0------------0-----0----0-----0------0------0------0--| 
A|--2------3-----3-----3-----3/5----7-----7-----7----7------9-------9------9------| 
E|--------------------------------------------------------------------------------| 

Prechorus: 
E|--------------------------| 
B|--------------------------| 
G|--------------------------| 
D|--5---------4---5---4-----| 
A|--3---------2---3---2---5-| 
E|------------------------3-| 
[ Tab from: http://www.guitartabs.cc/tabs/d/dashboard_confessional/new_year_project_tab.html ]
Chorus: 
E|---------------------------| 
B|---------------------------| 
G|---------------------------| 
D|--------------5------------| 
A|--5------2----3-------5----| 
E|--3------0------------3----| 

Bridge: 
E|--------------------------------------------------------------| 
B|--------------------------------------------------------------| 
G|--------------------------------------------------------------| 
D|--5------------7-------5---5-----x------5---4---5---4---------| 
A|--3------7-----5-------3---3-----x------3---2---3---2---5-----| 
E|---------5----------------------------------------------3-----| 

Chorus: 
E|---------------------------| 
B|---------------------------| 
G|---------------------------| 
D|--------------5------------| 
A|--5------2----3-------5----| 
E|--3------0------------3----| 

End: C
Comments