Dashboard Confessional - Morning Calls Chords & Tabs

 

Morning Calls Chords & Tabs

Dashboard Confessional Chords & Tabs

Version: 1 Type: Tab 0 ratings
1 star 2 stars 3 stars 4 stars 5 stars
comments

Morning Calls Tab

This song is in pseudo open D tuning
low to high DADADD

Intro part one:(strum quickly)4x

D----------------------0----
A-----12------12------------
A--10-----10------10--------
D---------------------------
A---------------------------
D---------------------------

Intro Part two: w/ part one 4x

D---------------0------------
A-------------------11---11--
A----10---10-----------------
D----------------------------
A----------------------------
D----------------------------

Main verse part 3x

D---0---0---0---0---0---0---0---0---0
A---0---0---0---0---0---0---0---0---0
A---0---0---0---0---0---0---0---0---0
D---5---5---5---5---0---0---0---0---7
A---5---5---5---5---0---0---0---0---7
D---5---5---5---5---0---0---0---0---7
[ Tab from: http://www.guitartabs.cc/tabs/d/dashboard_confessional/morning_calls_tab.html ]
("Morning calls..)  (..the line..)  
(...the worst..)    (..do) 
(..the best..)      (..hope for..)
(Tepid waters..)    (turpentine...)  etc.  

Hit the 777000 part at "hardly the best"

bridge part("shield your eyes")

D---0---0----
A---0---0----
A---0---0----
D---5---7----
A---5---7----
D---5---7----

Chorus:("Don't blink")

D-------0-------0-------0-------0----
A-------0-------0-------0-------0----
A-------0-------0-------0-------0----
D---9-------7-------5-------0--------
A---9-------7-------5-------0--------
D---9-------7-------5-------0--------

That is pretty much the gist of the entire song minus the interlude. Sorry about
that. Don't forget that part one of the interlude is playing during the verse.
Thanks for reading.


This is my favorite song.
Comments