Dashboard Confessional - Jamie Acoustic Chords & Tabs

 

Jamie Acoustic Chords & Tabs

Dashboard Confessional Chords & Tabs

Version: 1 Type: Tab 0 ratings
1 star 2 stars 3 stars 4 stars 5 stars
comments

Jamie Acoustic Tab

I'm almost positive this is 100% correct cause it sounds really good
but if not, i dont care. I'm not going to tab it with timing, because
it's easy enough to figure out.
Of course, like every Dashboard song, all strings are tuned down a 
half step, and it in drop Db tuning.

                      Jamie, what you doin now...
Eb--------------------------------------------
Bb--------------------------------------------
Gb--4--7-7----4--7-7--------------------------
Db5-5--7-7--5-5--7-7--------------------------
Ab5-5--5-5--5-5--5-5--------------------------
Db5-5--0-0--5-5--0-0--------------------------
[ Tab from: http://www.guitartabs.cc/tabs/d/dashboard_confessional/jamie_acoustic_tab.html ]
                  When I was down, you came....
Eb--------------------------------------------
Bb--------------------------------------------
Gb---------------5x55-------------------------
Db5x55-0x00-2x22-5x55-----keep repeating------
Ab5x55-0x00-2x22-3x33-------------------------
Db5x55-0x00-2x22------------------------------

                  Jaimie, I want you to know...
Eb--------------------------------------------
Bb--------------------------------------------
Gb--4--7-7----4--7-7--7/9-9--4-5--------------
Db5-5--7-7--5-5--7-7--7/9-9--4-5--------------
Ab5-5--5-5--5-5--5-5--5/7-7--2-3-5hp3p2-------
Db5-5--0-0--5-5--0-0--------------------------

                  Jaimie, o Jaimie, I'm so glad....
Eb------------------------0--------------------
Bb------------------------0--------------------
Gb4-4--7-7--9-9--7-7--5-5-5------keep repeating
Db5-5--7-7--9-9--7-7--5-5-5--------------------
Ab5-5--5-5--7-7--5-5--3-3-3--------------------
Db5-5--0-0-------0-0---------------------------


That's basically it. It sounds really good when you play it, 
so have fun with it. Snoogans.
Comments