Dashboard Confessional - Hands Down Chords & Tabs

 

Hands Down Chords & Tabs

Dashboard Confessional Chords & Tabs

Version: 3 Type: Bass Tab

Hands Down Bass Tab

Verse 1 (0:13-0:43)
G|----------------|----------------|----------------|----------------|
D|1111111111111111|----------------|----------------|----------------|x2
A|----------------|3333333333333333|----------------|--------44443333|
E|----------------|----------------|4444444444444444|66666666--------|

G|----------------|----------------|----------------|----------------|
D|1111111111111111|----------------|----------------|----------------|
A|----------------|3333333333333333|----------------|----------------|
E|----------------|----------------|4444444444444444|6---------------|

Chorus 1 (0:44-1:04)
G|----------------|----------------|----------------|----------------|
D|1111111111111111|----------------|----------------|----------------|x2
A|----------------|----------------|----------------|----------------|
E|----------------|3-33333333333333|4-44444444444444|3-33333344--33-3|

Verse 2 (1:05-1:34)
G|----------------|----------------|----------------|----------------|
D|1111111111111111|----------------|----------------|----------------|x2
A|----------------|3333333333333333|----------------|--------44443333|
E|----------------|----------------|4444444444444444|66666666--------|

G|----------------|----------------|----------------|----------------|
D|1111111111111111|----------------|----------------|----------------|
A|----------------|3333333333333333|4---------------|6-------44443333|
E|----------------|----------------|----------------|----------------|

Chorus 2 (1:35-1:55)
G|----------------|----------------|----------------|----------------|
D|1111111111111111|----------------|----------------|----------------|
A|----------------|----------------|----------------|----------------|
E|----------------|3-33333333333333|4-44444444444444|3-33333344443333|
[ Tab from: http://www.guitartabs.cc/tabs/d/dashboard_confessional/hands_down_btab_ver_3.html ]
G|----------------|----------------|----------------|----------------|
D|1111111111111111|----------------|----------------|----------------|x2
A|----------------|----------------|----------------|----------------|
E|----------------|3-33333333333333|4-44444444444444|3-33333344--3333|

Bridge/Outro (1:56-3:06)
G|----------------|----------------|----------------|----------------|
D|----------------|----------------|1-1-1-1-1-1-1-1-|----------------|
A|3-3-3-3-3-3-3-3-|----------------|----------------|1-1-1-1-1-1-1-1-|
E|----------------|4-4-4-4-4-4-4-4-|----------------|----------------|

G|----------------|----------------|----3-------3---|----------------|
D|----------------|----------------|1-1---1-1-1---1-|----------------|
A|3-3-3-3-3-3-3-3-|----------------|----------------|1-1-1-1-1-1-1-1-|
E|----------------|4-4-4-4-4-4-4-4-|----------------|----------------|

G|----------------|----------------|----------------|----------------|
D|----------------|----1-------1---|1~--1~--1~------|--------0~--3~--|
A|3-3-3-3---------|----------------|----------------|1~--3~----------|
E|----------------|4-4---4-444---4-|----------------|----------------|

G|----------------|----------------|----------------|----------------|
D|----------------|----------------|1-1-1-1-1-------|----------------|
A|3-3-3-3-3-3-3-3-|----------------|--------------0-|1-1-1-1-1-1-1-1-|
E|----------------|4-4-4-4-4-4-4-4-|----------3-4---|----------------|

G|----------------|----------------|----3-------3---|33-1h3p131------|
D|----------------|----------------|1-1---1-1-1---1-|----------3131-1|
A|3-3-3-3-3-3-3-3-|----------------|----------------|--------------4-|
E|----------------|4-4-4-4-4-4-4-4-|----------------|----------------|

G|----------------|----------------|----------------|----------------|
D|----------------|----------------|1-1-1-1-1-1-1-1-|----------------|
A|3-3-3-3-3-3-3-3-|----------------|----------------|1-1-1-1-1-1-1-1-|
E|----------------|4-4-4-4-4-4-4-4-|----------------|----------------|

G|----------------|----------------|----------------|----------------|
D|----------------|----------------|1~--------------|----------------|
A|3-3-3-3-3-3-3-3-|----------------|----------------|----------------|
E|----------------|4-4-4-4-4-4-4-4-|----------------|----------------|