Dashboard Confessional - Hands Down Chords & Tabs

 

Hands Down Chords & Tabs

Dashboard Confessional Chords & Tabs

Version: 1 Type: Bass Tab 0 ratings
1 star 2 stars 3 stars 4 stars 5 stars
comments

Hands Down Bass Tab

   
-------------------------------------------------------------------------------
	     Hands down (Bass tab) - Dashboard Confessional
-------------------------------------------------------------------------------

Tabbed By : Friend_of_fiend
e-mail: max_niit@hotmail.com

Tuning: normal tuning:
G
D
A
E

("Breathe in for luck...") reapeat this 3 times. you change note on the chord changes ((play)...2...3...4)
G|--------------------------------------------------------------------------|
D|--------------------------------------------------------------------------|
A|6-----------1-------------------------------------------------------------|
E|----8---4-----------------------------------------------------------------|
[ Tab from: http://www.guitartabs.cc/tabs/d/dashboard_confessional/hands_down_btab.html ]
Chorus ("My hopes are so high...") same timing. do this 3 times
G|--------------------------------------------------------------------------|
D|----5---6---5-------------------------------------------------------------|
A|6-------------------------------------------------------------------------|
E|--------------------------------------------------------------------------|

Reapeat the first part again

Reapeat chorus again

Bridge part ("Hands down this is the...") same timing. play 7 times but leave out the 
note on the 7th time
G|---------------------------------------------------------------------------|
D|---------------------------------------------------------------------------|
A|--------6---1--------------------------------------------------------------|
E|8---4----------------------------------------------------------------------|

| /  slide up
| \  slide down
| h  hammer-on
| p  pull-off
| ~  vibrato
| +  harmonic
| x  Mute note
===============================================================================
Comments