Dashboard Confessional - Ghost Of A Good Thing Chords & Tabs

 

Ghost Of A Good Thing Chords & Tabs

Dashboard Confessional Chords & Tabs

Version: 3 Type: Tab 0 ratings
1 star 2 stars 3 stars 4 stars 5 stars
comments

Ghost Of A Good Thing Tab

   
this is one of my first tabs wooo. ive tabbed it out in standard tunning im not sure
what it is though.oh well
e-----------------------------------------------------------|
b-----------------------------------------------------------| 
g-5-5-5-5---------------------------------------------------|  
d-5-5-5-5-2-2-3-3----5-5677--2-2-3-3-3-3--------------------|
a-3-3-3-3-2-2-3-3----5-5677--2-2-3-3-3-3--------------------|
e---------0-0-1-1----3-3455--0-0-1-1-1-1--------------------| verse 3 times


e---------------------------------------------------------------------------|
b---------------------------------------------------------------------------|
g---------------------------------------------------------------------------|
d-7777-5555-3333-5555-7777-5555-3333-5555-7777-5555-3333-5555-7777-5555-3333|
a-7777-5555-3333-5555-7777-5555-3333-5555-7777-5555-3333-5555-7777-5555-3333|
e-5555-3333-1111-3333-5555-3333-1111-3333-5555-3333-1111-3333-5555-3333-1111|

         above is the bridge

e--------------------------------------------------|      
b--------------------------------------------------|
g-55-33-------55-33-------55-33-------55-33--------| 
d-55-33-77-55-55-33-77-55-55-33-77-55-55-33-7------|       chorus
a-33-11-77-55-33-11-77-55-33-11-77-55-33-11-7------|
e-------55-33-------55-33-------55-33-------5------|


[ Tab from: http://www.guitartabs.cc/tabs/d/dashboard_confessional/ghost_of_a_good_thing_tab_ver_3.html ]
e-----------------------------------------------------------|
b-----------------------------------------------------------| 
g-5-5-5-5---------------------------------------------------|  verse x2
d-5-5-5-5-2-2-3-3----5-5677--2-2-3-3-3-3--------------------|
a-3-3-3-3-2-2-3-3----5-5677--2-2-3-3-3-3--------------------|
e---------0-0-1-1----3-3455--0-0-1-1-1-1--------------------|

e---------------------------------------------------------------------------|
b---------------------------------------------------------------------------|
g---------------------------------------------------------------------------|
d-7777-5555-3333-5555-7777-5555-3333-5555-7777-5555-3333-5555-7777-5555-3333|
a-7777-5555-3333-5555-7777-5555-3333-5555-7777-5555-3333-5555-7777-5555-3333|
e-5555-3333-1111-3333-5555-3333-1111-3333-5555-3333-1111-3333-5555-3333-1111|

above is the bridge

e--------------------------------------------------|      
b--------------------------------------------------|
g-55-33-------55-33-------55-33-------55-33--------| 
d-55-33-77-55-55-33-77-55-55-33-77-55-55-33-7------|       chorus
a-33-11-77-55-33-11-77-55-33-11-77-55-33-11-7------|
e-------55-33-------55-33-------55-33-------5------|

e--------------------------------------------------|
b--------------------------------------------------|
g-5555-33-------------------5555-------------------|
d-5555-33-77----55-33-------5555-77-------55-33----|
a-3333-11-77----55-33-------3333-77-55----55-33----|
e---------55----33-11------------55-33----33-11----|


e-----------------------------------------------------|      
b-----------------------------------------------------|
g-55-33-------55-33-------55-33-------55-33-----------| 
d-55-33-77-55-55-33-77-55-55-33-77-55-55-33-77-55-----|       chorus
a-33-11-77-55-33-11-77-55-33-11-77-55-33-11-77-55-----|
e-------55-33-------55-33-------55-33-------55-33-----|

     play the chorus till the end of the song

hope you like the song rate it please it is my first tab.
Comments