Dashboard Confessional - Ghost Of A Good Thing Chords & Tabs

 

Ghost Of A Good Thing Chords & Tabs

Dashboard Confessional Chords & Tabs

Version: 2 Type: Tab 0 ratings
1 star 2 stars 3 stars 4 stars 5 stars
comments

Ghost Of A Good Thing Tab

Ghost of a good thing
Dashboard Confessional

Submitted by: Sophie C. from the grove
my FIRST tab, so give me a break!! :)

INTRO + VERSE 
e--------------------------------------------------------------
b--------------------------------------------------------------
g---5xxx-------------------------------------------------------
d---5xxx----2x----3x---------5x----7x----2x----3x--------------
a---3xxx----2x----3x---------5x----7x----2x----3x--------------
E-----------0x----1x--pause--3x----5x----0x----1x--------------
"I guess it's luck but it's the same..."
Sorry i dont know the last note, if you figure it out, please e-mail me at
sophiecarette@hotmail.com

BRIDGE
e--------------------------------------------------------------
b--------------------------------------------------------------
g--------------------------------------------------------------
d---7xxx----5xxx----3xxx----5xxx----------------------3--------
a---7xxx----5xxx----3xxx----5xxx----------------------3--------
E---5xxx----3xxx----1xxx----3xxx----REPEAT 2x--end on-1--------
"but I beleive in you so much..."
[ Tab from: http://www.guitartabs.cc/tabs/d/dashboard_confessional/ghost_of_a_good_thing_tab_ver_2.html ]
CHORUS
e----------------------------------------------------------------------
b----------------------------------------------------------------------
g---5---------------------------------------5--------------------------
d---5----2----3----5----7----2----3----5----5----2----3----5----2----3-
a---3----2----3----5----7----2----3----5----3----2----3----5----2----3-
E--------0----1----3----5----0----1----3---------0----1----3----0----1-
"chasing the ghost of a good thing..."                         
again here i dont know the last note... please contact me if you figure it out...

OUTRO/VERSE?
e-----------------------------------------
b-----------------------------------------
g---5xxx----------------------------------
d---5xxx----2x----3xx----5xxx----3--------
a---3xxx----2x----3xx----5xxx----3--------
E-----------0x----1xx----3xxx----1--------
"just bend the pieces till they fit..."


LYRICS:
I guess it's luck but it's the same, 
hard luck you've been trying to tame.
maybe it's love but it's like you said, 
Love is like a role that we play.

but i beleive in you so much, 
I could die from the words that you say.
but i beleive in you so much, 
I could die from the words that you say

chasing the ghost of a good thing, 
haunting yourself as a real thing
it's getting away from here again, 
while your chasing ghosts.

just bend the pieces till they fit, 
like they were meant for it, 
but they weren't meant for this, 
no they weren't meant for this.
Comments