Dashboard Confessional - For You To Notice Chords & Tabs

 

For You To Notice Chords & Tabs

Dashboard Confessional Chords & Tabs

Version: 2 Type: Tab 0 ratings
1 star 2 stars 3 stars 4 stars 5 stars
comments

For You To Notice Tab

Dashboard Confessional
For You To Notice

EbAbDbEbBbEb


(Make sure you play the open strings on an up strum) 
(For some reason, Chris doesn't play the open E string before the note in the intro, but he does play it in the verse. I figure this is probably to help his timing while he is singing... Who knows?) 

Intro 
Eb:|------0------0------0------0-| 
Bb:|------0------0------0------0-| 
Eb:|------0------0------0------0-| 
Db:|--2------2------4------6-----| 
Ab:|-----------------------------| 
Eb:|----0------0------0------0---| 

Eb:|------0------0------0------0-| 
Bb:|------0------0------0------0-| 
Eb:|------0------0------0------0-| 
Db:|--2------2------4------4-----| 
Ab:|-----------------------------| 
Eb:|----0------0------0------0---| 


Verse - "I'm starting to fashion..." 
Eb:|-------0-------0-------0-------0-| 
Bb:|-------0-------0-------0-------0-| 
Eb:|-------0-------0-------0-------0-| 
Db:|---2-------2-------4-------6-----| 
Ab:|---------------------------------| 
Eb:|-0---0---0---0---0---0---0---0---| 
[ Tab from: http://www.guitartabs.cc/tabs/d/dashboard_confessional/for_you_to_notice_tab_ver_2.html ]
Eb:|-------0-------0-------0-------0-| 
Bb:|-------0-------0-------0-------0-| 
Eb:|-------0-------0-------0-------0-| 
Db:|---2-------2-------4-------4-----| 
Ab:|---------------------------------| 
Eb:|-0---0---0---0---0---0---0---0---| 


Prechorus - Play 2x: "And I would be..." 
Eb:|-----------------------0-------0-| 
Bb:|-----------------------0-------0-| 
Eb:|-----------------------0-------0-| 
Db:|---2---4---6---7---9-------9-----| 
Ab:|---------------------------------| 
Eb:|-0---0---0---0---0---0---0---0---| 

Eb:|--------0-------0-------0-------0-| 
Bb:|--------0-------0-------0-------0-| 
Eb:|--------0-------0-------0-------0-| 
Db:|---11-------7-------9-------9-----| 
Ab:|----------------------------------| 
Eb:|-0----0---0---0---0---0---0---0---| 


Second Part of Prechorus (Parenthesis for harmonoics) 
Eb:|--(7)-(7)------7-5-4---| 
Bb:|---------------------0-| 
Eb:|-9---7---5-4s5---------| 
Db:|-----------------------| 
Ab:|-----------------------| 
Eb:|-----------------------| 


Chorus - "But for now..." 
Eb:|-0---0-0---0---0-0---0---0-| 
Bb:|-0---0-0---0---0-0---0---0-| 
Eb:|-0---0-0---0---0-0---0---0-| 
Db:|-2---4s6---2---4s6---4---2-| 
Ab:|-2---4s6---4---4s6---6---2-| 
Eb:|-0---0-0---0---0-0---0---0-|
Comments