Dashboard Confessional - Don't Wait Chords & Tabs

 

Don't Wait Chords & Tabs

Dashboard Confessional Chords & Tabs

Version: 2 Type: Tab 0 ratings
1 star 2 stars 3 stars 4 stars 5 stars
comments

Don't Wait Tab

artist: dashboard confessional
song title: don't wait
tabbed by: josh ladrillono
email: BboiFLiP@hotmail.com
this is one of my first tabs..

standard tuning Eadgbe



opening:
 
                                                                OOOOOooohhh
e|-------4---------------4---------------4---------------4--------------------------|
b|-------5---------------4---------------5---------------4--------------------------|
g|-------4---------------4---------------4---------------4--------------------------|
d|-------6---------------6---------------6---------------6--------------------------|
a|-------7---------------7---------------7---------------7--------------------------|
E|-------0---------------0---------------0---------------0--------------------------|

         OOOoooooooooohhh                                       OOOOOooohhh
e|-------4---------------4---------------4---------------4--------------------------|
b|-------5---------------4---------------5---------------4--------------------------|
g|-------4---------------4---------------4---------------4--------------------------|
d|-------6---------------6---------------6---------------6--------------------------|
a|-------7---------------7---------------7---------------7--------------------------|
E|-------0---------------0---------------0---------------0--------------------------|

         OOOoooooooooohhh                                       OOOOOooohhh
e|-------4---------------4---------------4---------------4--------------------------|
b|-------5---------------4---------------5---------------4--------------------------|
g|-------6---------------6---------------6---------------6--------------------------|
d|-------6---------------6---------------6---------------6--------------------------|
a|-------4---------------4---------------4---------------4--------------------------|
E|-------0---------------0---------------0---------------0--------------------------|

         OOOoooooooooohhh                                       OOOOOooohhh Oh
e|-------4---------------4---------------4---------------4--------------------------|
b|-------5---------------4---------------5---------------4--------------------------|
g|-------4---------------4---------------4---------------4--------------------------|
d|-------6---------------6---------------6---------------6--------------------------|
a|-------x---------------x---------------x---------------x--------------------------|
E|-------0---------------0---------------0---------------0--------------------------|

         oooohhhhhhh
e|-------4---------------4---------------4---------------4--------------------------|
b|-------5---------------4---------------5---------------4--------------------------|
g|-------4---------------4---------------4---------------4--------------------------|
d|-------6---------------6---------------6---------------6--------------------------|
a|-------7---------------7---------------7---------------7--------------------------|
E|-------0---------------0---------------0---------------0--------------------------|

verse:
     The sky..                       
e|-------4---------------4---------------4---------------4--------------------------|
b|-------5---------------4---------------5---------------4--------------------------|
g|-------4---------------4---------------4---------------4--------------------------|
d|-------6---------------6---------------6---------------6--------------------------|
a|-------7---------------7---------------7---------------7--------------------------|
E|-------0---------------0---------------0---------------0--------------------------|

                
e|-------4---------------4---------------4---------------4--------------------------|
b|-------5---------------4---------------5---------------4--------------------------|
g|-------6---------------6---------------6---------------6--------------------------|
d|-------6---------------6---------------6---------------6--------------------------|
a|-------4---------------4---------------4---------------4--------------------------|
E|-------0---------------0---------------0---------------0--------------------------|
          
             
e|-------4---------------4---------------4---------------4--------------------------|
b|-------5---------------4---------------5---------------4--------------------------|
g|-------4---------------4---------------4---------------4--------------------------|
d|-------6---------------6---------------6---------------6--------------------------|
a|-------x---------------x---------------x---------------x--------------------------|
E|-------0---------------0---------------0---------------0--------------------------|
[ Tab from: http://www.guitartabs.cc/tabs/d/dashboard_confessional/dont_wait_tab_ver_2.html ]
                                  
e|-------4---------------4---------------4---------------4--------------------------|
b|-------5---------------4---------------5---------------4--------------------------|
g|-------4---------------4---------------4---------------4--------------------------|
d|-------6---------------6---------------6---------------6--------------------------|
a|-------7---------------7---------------7---------------7--------------------------|
E|-------0---------------0---------------0---------------0--------------------------|

chorus:

                 wait                  
e|---------------0----------------------------------0----------------------|
b|---------------0----------------------------------0----------------------|
g|---------------1----------------------------------4----------------------|
d|---------------2----------------------------------4----------------------|
a|---------------2----------------------------------2----------------------|
E|---------------0----------------------------------0----------------------|

    
e|---------------0----------------------------------0----------------------|
b|---------------0----------------------------------0----------------------|
g|---------------6----------------------------------2----------------------|
d|---------------6----------------------------------2----------------------|
a|---------------4----------------------------------0----------------------|
E|---------------0----------------------------------0----------------------|

           armor doooo...                  
e|---------------0----------------------------------0----------------------|
b|---------------0----------------------------------0----------------------|
g|---------------1----------------------------------4----------------------|
d|---------------2----------------------------------4----------------------|
a|---------------2----------------------------------2----------------------|
E|---------------0----------------------------------0----------------------|

           armor doooo...                  
e|---------------0----------------------------------0----------------------|
b|---------------0----------------------------------0----------------------|
g|---------------6----------------------------------2----------------------|
d|---------------6----------------------------------2----------------------|
a|---------------4----------------------------------0----------------------|
E|---------------0----------------------------------0----------------------|

verse:
         down...                                
e|-------4---------------4---------------4---------------4--------------------------|
b|-------5---------------4---------------5---------------4--------------------------|
g|-------4---------------4---------------4---------------4--------------------------|
d|-------6---------------6---------------6---------------6--------------------------|
a|-------7---------------7---------------7---------------7--------------------------|
E|-------0---------------0---------------0---------------0--------------------------|

             
e|-------4---------------4---------------4---------------4--------------------------|
b|-------5---------------4---------------5---------------4--------------------------|
g|-------4---------------4---------------4---------------4--------------------------|
d|-------6---------------6---------------6---------------6--------------------------|
a|-------7---------------7---------------7---------------7--------------------------|
E|-------0---------------0---------------0---------------0--------------------------|

               
e|-------4---------------4---------------4---------------4--------------------------|
b|-------5---------------4---------------5---------------4--------------------------|
g|-------6---------------6---------------6---------------6--------------------------|
d|-------6---------------6---------------6---------------6--------------------------|
a|-------4---------------4---------------4---------------4--------------------------|
E|-------0---------------0---------------0---------------0--------------------------|
          
              
e|-------4---------------4---------------4---------------4--------------------------|
b|-------5---------------4---------------5---------------4--------------------------|
g|-------4---------------4---------------4---------------4--------------------------|
d|-------6---------------6---------------6---------------6--------------------------|
a|-------x---------------x---------------x---------------x--------------------------|
E|-------0---------------0---------------0---------------0--------------------------|
 
        agaaaiinn........                                      Don't...
e|-------4---------------4---------------4---------------4--------------------------|
b|-------5---------------4---------------5---------------4--------------------------|
g|-------4---------------4---------------4---------------4--------------------------|
d|-------6---------------6---------------6---------------6--------------------------|
a|-------7---------------7---------------7---------------7--------------------------|
E|-------0---------------0---------------0---------------0--------------------------|

Comments