Dashboard Confessional - Carry This Picture Chords & Tabs

 

Carry This Picture Chords & Tabs

Dashboard Confessional Chords & Tabs

Version: 2 Type: Tab

Carry This Picture Tab

After the beginning riff you palm mute the first two strokes and stroke
each pattern as down,down, up,down, up






e|---------------------------------------------------------------------|
B|---------------------------------------------------------------------|
G|---------------2----0------------------------------------------------|
D|---0---2---4-------------4---------x(0)--x(0)----0---x--0------------|
A|-----------------------------------x(2)--x(2)----2---x--2------------|
E|-----------------------------------x(3)--x(3)----3---x--3------------|

e|---------------------------------------------------------------------|
B|---------------------------------------------------------------------|
G|---------------------------------------------------------------------|
D|---x(0)--x(0)----0---x--0---------x(2)--x(2)----2---x--2-------------|
A|---x(2)--x(2)----2---x--2---------x(3)--x(3)----3---x--3-------------|
E|---x(3)--x(3)----3---x--3---------x(3)--x(3)----3---x--3-------------|

e|---------------------------------------------------------------------|
B|---------------------------------------------------------------------|
G|---------------------------------------------------------------------|
D|---x(2)--x(2)----2---x--0---------x(5)--x(5)----5---x--5-------------|
A|---x(3)--x(3)----3---x--3---------x(4)--x(4)----4---x--4-------------|
E|---x(3)--x(3)----3---x--3---------x(5)--x(5)----5---x--5-------------|
[ Tab from: http://www.guitartabs.cc/tabs/d/dashboard_confessional/carry_this_picture_tab_ver_2.html ]
e|---------------------------------------------------------------------|
B|---------------------------------------------------------------------|
G|---------------------------------------------------------------------|
D|---x(5)--x(5)----5---x--0---------x(4)--x(4)----4--x---4-------------|
A|---x(4)--x(4)----4---x--4---------x(5)--x(5)----5---x--5-------------|
E|---x(5)--x(5)----5---x--5---------x(5)--x(5)----5---x--5-------------|

e|---------------------------------------------------------------------|
B|---------------------------------------------------------------------|
G|---------------------------------------------------------------------|
D|---x(4)--x(4)----4---x--0---------x(3)--x(3)----3---x--3-------------|
A|---x(5)--x(5)----5---x--5---------x(2)--x(2)----2---x--2-------------|
E|---x(5)--x(5)----5---x--5---------x(3)--x(3)----3---x--3-------------|

e|---------------------------------------------------------------------|
B|---------------------------------------------------------------------|
G|---------------------------------------------------------------------|
D|---x(3)--x(3)----3---x--0---------x(2)--x(2)----2---x--2-------------|
A|---x(2)--x(2)----2---x--2---------x(3)--x(3)----3---x--3-------------|
E|---x(3)--x(3)----3---x--3---------x(3)--x(3)----3---x--3-------------|

e|---------------------------------------------------------------------|
B|---------------------------------------------------------------------|
G|---------------------------------------------------------------------|
D|---x(2)--x(2)----2---x--0---------x(5)--x(5)----5---x--5-------------|
A|---x(3)--x(3)----3---x--3---------x(4)--x(4)----4---x--4-------------|
E|---x(3)--x(3)----3---x--3---------x(5)--x(5)----5---x--5-------------|

e|---------------------------------------------------------------------|
B|---------------------------------------------------------------------|
G|---------------------------------------------------------------------|
D|---x(5)--x(5)----5---x--0---------x(4)--x(4)----4---x--4-------------|
A|---x(4)--x(4)----4---x--4---------x(5)--x(5)----5---x--5-------------|
E|---x(5)--x(5)----5---x--5---------x(5)--x(5)----5---x--5-------------|




	Then you just repeat it. 

	I'm not sure, but I think you may play the open G on some of the chords.