Dashboard Confessional - Best Deceptions Chords & Tabs

 

Best Deceptions Chords & Tabs

Dashboard Confessional Chords & Tabs

Version: 2 Type: Tab 0 ratings
1 star 2 stars 3 stars 4 stars 5 stars
comments

Best Deceptions Tab

   
Song: Best Deceptions
Artist: Dashboard Confessional!


OK I am sorry, but none of you no how to tab dashboard confessional songs. If you knew ANYTHING about him, you would know that at least 5/6 of his songs are not tuned regular tuning or ever drop D. Here is how you REALLY play the best deceptions. (Great song)

Tuning: High to low-d d g d a da step down)

Intro
D--------------------------------------------------------------------------------------------
D--------------------------------------------------------------------------------------------
G------2---------2---------2-----------------------------------------------------------------
D--------4---- 0---4----0---4s5-4-2-4--------------------------------------------------------
A----0-------4---------2---------------------------------------------------------------------
D--0-----------------------------------------------------------------------------------------

Verse
D—0------0------0-----0--------------------------------------------------0-----------
D—0------0------0-----0--------------------------------------------------0-----------
G—2------2------4-----0— this chord should be really short---------------x-----------
D—0------0------4-----0--------------------------------------------------4s5-4-2-4---
A-0------4------2-----0--------------------------------------------------0-----------
D—0------0------0-----0--------------------------------------------------0-----------
[ Tab from: http://www.guitartabs.cc/tabs/d/dashboard_confessional/best_deceptions_tab_ver_2.html ]
Chorus (both parts)
                                                    note before “so kiss me hard…”  * = harmonic
D—0--------0--------0-----------------------------12*----------------------------------------------
D—0--------0--------0-----------------------------12*----------------------------------------------
G—7--------7--------7-----------------------------11-----------------------------------------------
D—0--------7--------5-----------------------------12*----------------------------------------------
A—0--------7--------5------------------------------x-----------------------------------------------
D—0--------7--------5-----------------------------x------------------------------------------------

Outro  *NOTE*- This part is played with some choppy chord hitting, just listen to the song to get the right feel for it
                                                                     Last time hit harmonic note again
D—0------0------0-----0----0-------------------------------12*-----------------------------
D—0------0------0-----0----0-------------------------------12*-----------------------------
G—2------2------4-----7----7-------------------------------11------------------------------
D—0------0------4-----5----7-------------------------------12*-----------------------------
A-0------4------2-----5----7-------------------------------x-------------------------------
D—0------0------0-----5----7-------------------------------x-------------------------------

I have heard alot of people complain about not having an accurate tab for this
song so here you go. Enjoy.
Comments