Dashboard Confessional - Bend And Not Break Chords & Tabs

 

Bend And Not Break Chords & Tabs

Dashboard Confessional Chords & Tabs

Version: 1 Type: Tab 0 ratings
1 star 2 stars 3 stars 4 stars 5 stars
comments

Bend And Not Break Tab

#----------------------------------PLEASE NOTE--------------------------------#
#This file is the author's own work and represents their interpretation of the#
#song. You may only use this file for private study, scholarship, or research.#
#-----------------------------------------------------------------------------#
#-- File created with Instab - http://www.pconline.com/~smcarey/instab.html --#
#-----------------------------------------------------------------------------#

Author/Artist: Dashboard Confessional
Title: Bend and Not Break
Transcribed by: Aaron Stark
Email: StarkA@Northwood.edu

----------8--------8---|-----------------|--1----5---6------------------------
--------8---8----8---8-|---10-11---------|--1----6---6------------------------
-----10-------10-------|-----------------|--2----7---7------------------------
-----------------------|----------10-10--|--3----7---8------------------------
-----------------------|-----------------|--3----5---8------------------------
-----------------------|-----------------|--1--------6------------------------
 Intro   Gtr.1            Gtr.2                                               
[ Tab from: http://www.guitartabs.cc/tabs/d/dashboard_confessional/bend_and_not_break_tab.html ]
-------1---1---1--------------------------------------------------------------
-------1---2---3--------------------------------------------------------------
-------2---3---3--------------------------------------------------------------
-------3---0---3--------------------------------------------------------------
-------3-------1--------------------------------------------------------------
-------1----------------------------------------------------------------------
 Verse                                                                        

--------1---------------------------------------------------------------------
--------1---------------------------------------------------------------------
--------2---5--3--5/6---------------------------------------------------------
--------3---5--3--5/6---------------------------------------------------------
--------3---3--1--3/4---------------------------------------------------------
--------1---------------------------------------------------------------------
 Bridge                                                                       

-------1----5----6------------------------------------------------------------
-------1----6----6------------------------------------------------------------
-------2----7----7------------------------------------------------------------
-------3----7----8------------------------------------------------------------
-------3----5----8------------------------------------------------------------
-------1---------6------------------------------------------------------------
 Chorus                                                                       

Comments