Dashboard Confessional - As Lovers Go Chords & Tabs

 

As Lovers Go Chords & Tabs

Dashboard Confessional Chords & Tabs

Version: 1 Type: Tab 0 ratings
1 star 2 stars 3 stars 4 stars 5 stars
comments

As Lovers Go Tab

Dashboard Confessional - As Lovers Go
Author - John Luekemeyer
Email - Relaapse182@hotmail.com

Standard Tuning: Half Step Down

Chord Progressions    3X - "She said I've got to be honest..." 
eb:|-0----0----1-| 
Bb:|-1----1----1-| 
Gb:|-0----2----2-| 
Db:|-2----2----3-| 
Ab:|-3----0----3-| 
Eb:|-0---------1-| 

   "All wrong.... all wrong, you've got me." 
eb:|-0---5----5------3---3-| 
Bb:|-1---5----5------3---3-| 
Gb:|-0---5----5------4---4-| 
Db:|-2---7----7----5---5---| 
Ab:|-3---7----7----5---5---| 
Eb:|-0---5----5----3---3---| 

   "I'll be true, I'll be useful..." 
eb:|-0----1----5----1----5----6-| 
Bb:|-1----1----5----1----6----6-| 
Gb:|-0----2----5----2----7----7-| 
Db:|-2----3----7----3----7----8-| 
Ab:|-3----3----7----3----5----8-| 
Eb:|-0----1----5----1----5----6-| 


"This is as easy as lovers go..." 
eb:|-0----3----1----5----1----3-| 
Bb:|-1----3----1----6----1----3-| 
Gb:|-0----4----2----7----2----4-| 
Db:|-2----5----3----7----3----5-| 
Ab:|-3----5----3----5----3----5-| 
Eb:|-0----3----1----5----1----3-| 

[ Tab from: http://www.guitartabs.cc/tabs/d/dashboard_confessional/as_lovers_go_tab.html ]
"This is as wonderful as loving goes..." 
eb:|-0----3----1----5----6-|-0-| 
Bb:|-1----3----1----6----6-|-1-| 
Gb:|-0----4----2----7----7-|-0-| 
Db:|-2----5----3----7----8-|-2-| 
Ab:|-3----5----3----5----8-|-3-| 
Eb:|-0----3----1----5----6-|-0-| <-- End On 

  3X - "For so long I thought I wasn't gonna settle down..." 
eb:|-0----0----1-| 
Bb:|-1----1----1-| 
Gb:|-0----2----2-| 
Db:|-2----2----3-| 
Ab:|-3----0----3-| 
Eb:|-0---------1-| 

   "Tonight... tonight, tonight, you've got me" 
eb:|-0---5----5------3---3-| 
Bb:|-1---5----5------3---3-| 
Gb:|-0---5----5------4---4-| 
Db:|-2---7----7----5---5---| 
Ab:|-3---7----7----5---5---| 
Eb:|-0---5----5----3---3---| 

   "I'll be true, I'll be useful..." 
eb:|-0----1----5----1----5----6-| 
Bb:|-1----1----5----1----6----6-| 
Gb:|-0----2----5----2----7----7-| 
Db:|-2----3----7----3----7----8-| 
Ab:|-3----3----7----3----5----8-| 
Eb:|-0----1----5----1----5----6-| 

6X - "This is as easy as lovers go..." 
eb:|-0----3----1----5----1----3-| 
Bb:|-1----3----1----6----1----3-| 
Gb:|-0----4----2----7----2----4-| 
Db:|-2----5----3----7----3----5-| 
Ab:|-3----5----3----5----3----5-| 
Eb:|-0----3----1----5----1----3-| 

  "What's the sense in waiting?" 
eb:|--8----5----3-| 
Bb:|--8----5----3-| 
Gb:|--9----6----4-| 
Db:|-10----7----5-| 
Ab:|-10----7----5-| 
Eb:|--8----5----3-|
Comments