Dashboard Confessional - Again I Go Unnoticed Chords & Tabs

 

Again I Go Unnoticed Chords & Tabs

Dashboard Confessional Chords & Tabs

Version: 3 Type: Tab 0 ratings
1 star 2 stars 3 stars 4 stars 5 stars
comments

Again I Go Unnoticed Tab

This is the main riff throughout the whole song, the main guitar plays these 
chords, listen for timing
e|---------------------------------------------------------------------------
B|---------------------------------------------------------------------------
G|-8-------------------------------------------------------------------------
D|-8----10----8--------------------------------------------------------------
A|-6----10----8--------------------------------------------------------------
E|-------8-----6-------------------------------------------------------------

The other guitar plays this octave throughout the whole song
e|---------------------------------------------------------------------------
B|---------------------------------------------------------------------------
G|--8------------------------------------------------------------------------
D|--x------------------------------------------------------------------------
A|--6------------------------------------------------------------------------
E|---------------------------------------------------------------------------
[ Tab from: http://www.guitartabs.cc/tabs/d/dashboard_confessional/again_i_go_unnoticed_tab_ver_3.html ]
Heres the one part "Please tell me your just feeling tired" (again listen for 
timing)
e|---------------------------------------------------------------------------
B|---------------------------------------------------------------------------
G|-8-------------------------------------------------------------------------
D|-8----8---10----6----------------------------------------------------------
A|-6----8---10----6----------------------------------------------------------
E|------6----8----4----------------------------------------------------------

"I'll wait until tommorow maybe you'll feel better than...." This is what the 
first guitar plays
e|---------------------------------------------------------------------------
B|---------------------------------------------------------------------------
G|----------8----------------------------------------------------------------
D|-3---6----8----------------------------------------------------------------
A|-3---6----6-----8----------------------------------------------------------
E|-1---4----------6----------------------------------------------------------

The other guitar plays these octaves during that part
e|---------------------------------------------------------------------------
B|---------------------------------------------------------------------------
G|-10----8-----15---12-------------------------------------------------------
D|--x----x------x----x-------------------------------------------------------
A|--8----6-----13---10-------------------------------------------------------
E|---------------------------------------------------------------------------
Comments