Darrell Evans - Trading My Sorrows Chords & Tabs

 

Trading My Sorrows Chords & Tabs

Darrell Evans Chords & Tabs

Version: 2 Type: Bass Tab 0 ratings
1 star 2 stars 3 stars 4 stars 5 stars
comments

Trading My Sorrows Bass Tab

INTRO:
G---6-6---11----14-14---13--|
D---------------------------|
A---------------------------|
E---5-5---10----14-14---12--|

G---6-6---11----14-14---16---|
D----------------------------|
A----------------------------|
E---5-5---10----14-14---16---|


G---6-6---11----14-14---13--|
D---------------------------|
A---------------------------|
E---5-5---10----14-14---12--|  2x


VERSE:
Im trading my sorrows,
G---6-6---11----14-14---13--|
D---------------------------|
A---------------------------|
E---5-5---10----14-14---12--|


Im trading my shame...
G---6-6---11----14-14---16--|
D---------------------------|
A---------------------------|
E---5-5---10----14-14---16--|


G---6-6---11----14-14---13--|
D---------------------------|
A---------------------------|
E---5-5---10----14-14---12--| 2x

Im trading my sickness,
G---6-6---11----14-14---13--|
D---------------------------|
A---------------------------|
E---5-5---10----14-14---12--|

Im trading my pain,
G---6-6---11----14-14---16--|
D---------------------------|
A---------------------------|
E---5-5---10----14-14---16--|


G---6-6---11----14-14---13--|
D---------------------------|
A---------------------------|
E---5-5---10----14-14---12--| 2x

CHORUS:
Yes Lord, Yes, Yes Lord
G---6-6---11----14-14---13--|
D---------------------------|
A---------------------------|
E---5-5---10----14-14---12--|

G---6-6---11----14-14---16---|
D----------------------------|
A----------------------------|
E---5-5---10----14-14---16---|
[ Tab from: http://www.guitartabs.cc/tabs/d/darrell_evans/trading_my_sorrows_btab_ver_2.html ]
G---6-6---11----14-14---13--|
D---------------------------|
A---------------------------|
E---5-5---10----14-14---12--|

G---6-6---11----14-14---16---|
D----------------------------|
A----------------------------|
E---5-5---10----14-14---16---|

Verse:
I am pressed but not crushed
G---6-6---11----14-14---13--|
D---------------------------|
A---------------------------|
E---5-5---10----14-14---12--|

G---6-6---11----14-14---16---|
D----------------------------|
A----------------------------|
E---5-5---10----14-14---16---|

G---6-6---11----14-14---13--|
D---------------------------|
A---------------------------|
E---5-5---10----14-14---12--|

G---6-6---11----14-14---16---|
D----------------------------|
A----------------------------|
E---5-5---10----14-14---16---|

Though the sorrow may last for the night,
G----------------------------------|
D----------------------------------|
A----------------------------------|
E--0-------------------------------|


His joy comes with the morning,
G----------------------------------|
D----------------------------------|
A------------------5-5-5-5-5-------|
E---3------------------------------|

IT'S PRETTY MUCH THE SAME PATTERN, BUT THERE IS ANOTHER WAY TO DO IT IF YOU HAVE A 5-
string BASS. THE A YOU PLAY ON THE B-string WITH THE TWO NOTES YOU CAN SWITCH ON THE
5TH STRING LIKE THIS....
G---------11----14-14--------------|
D--11-11---------------------------|
A----------------------------------|
E---------10----14-14--------------|
B--10-10---------------------------|

THEN YOU CONTINUE. JUST THE A YOU CHANGE. IT'S MUCH EASIER TO PLAY THIS SONG IF YOU HAVE 
5-STRING BASS CUZ YOU DONT HAVE TO MOVE SO MUCH.

GOD BLESS, email me if any problems at elmusikopekoso23@hotmail.com
Comments