Darrell Evans - Trading My Sorrows Chords & Tabs

 

Trading My Sorrows Chords & Tabs

Darrell Evans Chords & Tabs

Version: 1 Type: Bass Tab 0 ratings
1 star 2 stars 3 stars 4 stars 5 stars
comments

Trading My Sorrows Bass Tab

This is a tab that I would like you to put on the archive.


"Trading My Sorrows"
  Artist-Darrel Evans
  Album-Freedom

[ Tab from: http://www.guitartabs.cc/tabs/d/darrell_evans/trading_my_sorrows_btab.html ]
  Intro:(this is the way it goes most of the song except for the bridge)
  G|-----------------------------------16-18-18-------------|
  D|--------16-19-19-18-------16-19-19-18-19-19-16-19-19-18-|
  A|--16-16-17-21-21-19-16-16-17-21-21----------17-21-21-19-|
  E|--17-17-------------17-17-------------------------------|

  G|---------------------|
  D|--------16-19-19-18--|
  A|--16-16-17-21-21-19--|
  E|--17-17--------------|


  Bridge:
  G|-------------------------------------------|
  D|-------------------------------------------|
  A|-------------------------------------------|
  E|--0-0-0-0-0-5-5-5-0-0-3-3-3-3-10-10-10-10--|


  This is basically the way the song goes.
  If you have any questions or corrections email them to me at
  BassBBC@aol.com
Comments