Darling Violetta - Ophelia Chords & Tabs

 

Ophelia Chords & Tabs

Darling Violetta Chords & Tabs

Version: 1 Type: Bass Tab 0 ratings
1 star 2 stars 3 stars 4 stars 5 stars
comments

Ophelia Bass Tab

Darling Violetta - Ophelia
Tabbed By: Daniel Taylor
EMail: danielt88@hotmail.com


Under guitar part
[ Tab from: http://www.guitartabs.cc/tabs/d/darling_violetta/ophelia_btab.html ]
G-----------------
D-----------------
A-------2/3/5-----
E--3h5------------

G--------------------------------------
D--------------------------------------
A-------5h7/9------------7^----5-------
E--3h5---------------------------------

^ bend down a note
Comments