Darling Violetta - Cock The Ballad Of Ali Fox Chords & Tabs

 

Cock The Ballad Of Ali Fox Chords & Tabs

Darling Violetta Chords & Tabs

Version: 1 Type: Bass Tab 0 ratings
1 star 2 stars 3 stars 4 stars 5 stars
comments

Cock The Ballad Of Ali Fox Bass Tab

Darling Violetta - Cock (The Ballad of Ali Fox)
Tabbed By: Daniel Taylor
EMail: danielt88@hotmail.comIntro:
[ Tab from: http://www.guitartabs.cc/tabs/d/darling_violetta/cock_the_ballad_of_ali_fox_btab.html ]
G-----------------------------------------------------
D-----------------------------------------------------
A-------3-5-3-------2-3-2-------3-5-3-------2-3-2-----
E--3h5---------3h5---------3h5---------3h5------------

Verse:

G------------------------------------------------------
D------------------------------------------------------
A----5--3--0--2-3-2-0-------5--3--0--5-7-5-3-----------
E--3---------------------3-----------------------------

That's all I have worked out so far.
Comments