Darling Violetta - Awesome Chords & Tabs

 

Awesome Chords & Tabs

Darling Violetta Chords & Tabs

Version: 1 Type: Tab 0 ratings
1 star 2 stars 3 stars 4 stars 5 stars
comments

Awesome Tab

   
Darling Violetta - Awesome
Tabbed By: Daniel Taylor
EMail: danielt88@hotmail.com


Main Riff

e--7-7-7-7-7-7-7-7--7-7-7-7-7-7--
B--8p7h8p7h8p7h8p7--8p7h8p7h8p7--
G--7-7-7-7-7-7-7-7--7-7-7-7-7-7--
D--0----------------0------------
A--------------------------------
E--------------------------------

Somewhere in cyberspace
The minutes turn to hours
The world is in my hands
Unfolding like a flower

A golden energy
Was rising out of my head
I shed my evil skin
			A (let ring)
And found myself again

e------------------
B------------------
G--9-8-9-9/11-9-8--
D------------------
A------------------
E------------------

Chorus

         G5 
I was wrong, I don't mind
     D5          C5
The impossible seems possible
      G5
This time I'm an electric wire
     D5     C5
If the sun can radiate then so can I

Main Riff

This is a good day for
A revolution of the mind
Voices ride the wind
And take me to the night

I crawled over broken glass
To find a place in the sun
Was with me all along
	                     A (let ring)
The circle had begun

e------------------
B------------------
G--9-8-9-9/11-9-8--
D------------------
A------------------
E------------------

Chorus
[ Tab from: http://www.guitartabs.cc/tabs/d/darling_violetta/awesome_tab.html ]
         G5 
I was wrong, I don't mind
     D5          C5
The impossible seems possible
      G5
This time I'm an electric wire
     D5     C5
If the sun can radiate then so can I

Solo / Break (harpsichord arr. for guitar)

e---------------------------------------------------------------------
B--12-----------------------------12----------------------------------
G-----12-12-11-9---------------9-----12-12-11-9-------------------12--
D----------------12-10-9-10-12------------------12-9h10p9h10p9-12-----
A---------------------------------------------------------------------
E---------------------------------------------------------------------

Salt and sea of ill stay free
Fire and air draw down to me
Round and round the circle's bound

Main Riff

Do do do…

Short Guitar Lead

e-------10--------------------------
B----------13-12-10—13-12-10-12-----
G--9/12-------------------------12--
D-----------------------------------
A-----------------------------------
E-----------------------------------

Chorus (use chorus chords)

I'm an electric wire
If the sun can radiate than so can I
I don't mind
The impossible seems possible
This I'm an electric wire
If the sun can radiate then so can I
Then so can I

Main Riff & Short Guitar Lead

That was also tabbed by Richard Ward.
Comments