Darling Violetta - Angel Theme Chords & Tabs

 

Angel Theme Chords & Tabs

Darling Violetta Chords & Tabs

Version: 2 Type: Tab 0 ratings
1 star 2 stars 3 stars 4 stars 5 stars
comments

Angel Theme Tab

Darling Violetta
Catharsis of Sufferance/Angel Tv series theme
www.darlingvioletta.com


|---------------------------------------|------------------------------------|
|---------------------------------------|------------------------------------|
|---------7-----------------------------|-----------7---------11--12---------|
|-----------10--9--7--------------------|-------------10--9-----------10--10-|
|-7--9--10------------10--9--7--9--10---|-7--9--10---------------------------|
|-------------------------------------8-|------------------------------------|
[ Tab from: http://www.guitartabs.cc/tabs/d/darling_violetta/angel_theme_tab_ver_2.html ]
|---------------------------------------|------------------------------------|
|---------------------------------------|------------------------------------|
|---------------------------------------|-------------------------11-12------|
|------------------------------------10-|-9-10--9------12-10--9---------9--9-|
|---9--7--9--7--9--10---9--7--9--7-12---|----------12------------------------|
|-8-------------------8-----------------|------------------------------------|

|---------------------------------------|------------------------------------|
|---------------------------------------|------------------------------------|
|---------7-----------------------------|-----------7---------11--12---------|
|-----------10--9--7--------------------|-------------10--9-----------10--10-|
|-7--9--10------------10--9--7--9--10---|-7--9--10---------------------------|
|-------------------------------------8-|------------------------------------|

Comments