Darkthrone - Transylvanian Hunger Chords & Tabs

 

Transylvanian Hunger Chords & Tabs

Darkthrone Chords & Tabs

Version: 2 Type: Tab 0 ratings
1 star 2 stars 3 stars 4 stars 5 stars
comments

Transylvanian Hunger Tab

You must play every riff with tremolo picking (Repeat 'em as necessary)

RIFF1:

|-----------------------------|
|-----------------------------|
|-----------------------------|
|-12--10--9--10--10--9--10--9-|
|-0---0---0--0---7---7--7---7-|
|-----------------------------|

RIFF2:
[ Tab from: http://www.guitartabs.cc/tabs/d/darkthrone/transylvanian_hunger_tab_ver_2.html ]
|----------------|
|----------------|
|----------------|
|-7--8--7--9--10-|
|-0--6--0--8--8--|
|----------------|

RIFF3:

|------|
|------|
|------|
|------|
|-2--3-|
|-0--1-|

That's all!!!! 
Man, this is THE black metal song and one of the easier to play :) I'm pretty sure it's 100% correct. :)
If you are so good to find any mistake mail me at maguscaligula@hotmail.it
HAIL YLLIA!
Comments