Darkthrone - Skald Av Satans Sol Chords & Tabs

 

Skald Av Satans Sol Chords & Tabs

Darkthrone Chords & Tabs

Version: 1 Type: Tab 0 ratings
1 star 2 stars 3 stars 4 stars 5 stars
comments

Skald Av Satans Sol Tab

   
     -=Darkthrone "Skald av satans sol"=-
-=from the "Transilvanian hunger" album (1994)=-
        -=Version 1.0  6 June 2000=-

-Tabbed by Vladimir Savin.

Contact me at: Vladimir.Savin@p666.f1855.n5020.z2.fidonet.org;
       dearg@mail.ru;
  2:5020/1855.666@fidonet

Legend:

...-play many times

Riff A
E||----------------|
B||----------------|
G||----------------|
D||----------------|
A||--7-8-7-4-7-4-3-|
E||--5-6-5-2-5-2-1-|
[ Tab from: http://www.guitartabs.cc/tabs/d/darkthrone/skald_av_satans_sol_tab.html ]
Riff B
------------------------|
------------------------|
------------------------|
------------------------|
--7...-11-10-2...-8-7---|
------------------------|

Riff C
---------------------|
---------------------|
---------------------|
--1...-3-4-2...-4-2--|
---------------------|
---------------------|

Riff D          
-----------------|
-----------------|
-----------------|
-----------------|
--8...--4--4--3--|
--6...--2--2--1--|

Riff A X12
Riff B X8
Riff A X8
Riff B X8
Riff C X8
Riff D X1
Riff A X8
Riff B till the end
Comments