Darkthrone - Rust Chords & Tabs

 

Rust Chords & Tabs

Darkthrone Chords & Tabs

Version: 1 Type: Tab 0 ratings
1 star 2 stars 3 stars 4 stars 5 stars
comments

Rust Tab

Band:  Darkthrone
Album: Hate them
Song:  Rust

Copyright (c) Moonfog productions
Version 1.0 - 20.02.2005

Transcribed By: Ville Nousiainen
Email: blackened_81@hotmail.com

.  - palm mute           /  - slide up to
\  - slide down to       ~  - vibrato
h  - hammer on           b  - Bend
p  - pull off            Suffixes for bend
t  - tap                 f  - full bend    h - half bend
ph - pinched harmonic    q  - quarter bend t - tap bend
*  - see comment         ^  - Hold bend    r release bend
x  - Stuccatto           ~  - vibrato bend
,  - slight palm mute    () - ghost note, sustained note
"  - tremolo note        <> - Trill

Tuning D (DGCFAd)

Intro riff
|---------------------------------------|
|---------------------------------------|
|---------------------------------------|
|-----5--------5b--------5--------5b----|
|-----7--------7b--------7--------7b----|
|-0--------0---------0--------0---------|

Riff 1  (play 12 times)
|---------------------|
|---------------------|
|---------------------|
|---5---5---5---7b----|
|---7---7---7---8b----|
|-0---0---0---0-------|

Riff 2  (play 4 times)
|-----------------------------------|
|-----------------------------------|
|-----------------------------------|
|---5---5---5---7b--5---5---5-------|
|---7---7---7---8b--7---7---7---8---|
|-0---0---0---0---0---0---0---0-6---|

Riff 3
|--------------------------------------------------------------|
|--------------------------------------------------------------|
|--------------------------------------------------------------|
|--555----555----555----555-5-7----555----555----555----7\5-7--|
|--777----777----777----777-7-8----777----777----777----8\7-8--|
|------00-----00-----00---------00-----00-----00-----00--------|
[ Tab from: http://www.guitartabs.cc/tabs/d/darkthrone/rust_tab.html ]
Riff 4  (play 3 times)
|--------------------------------------------------------------|
|--------------------------------------------------------------|
|--------------------------------------------------------------|
|----555----555----555----5-7----555----555----555-------------|
|----777----777----777----7-8----777----777----777----8\7-8----|
|-00-----00-----00-----00-----00-----00-----00-----00-6\5-6----|

Riff 5  (play 2 times)
|--------------------------------------------------------------|
|--------------------------------------------------------------|
|--------------------------------------------------------------|
|----555----555----555----5-7----555----555----555----7\5-7----|
|----777----777----777----7-8----777----777----777----8\7-8----|
|-00-----00-----00-----00-----00-----00-----00-----00----------|

|--------------------------------------------------------------|
|--------------------------------------------------------------|
|--------------------------------------------------------------|
|----555----555----555----5-7----555----555----555-------------|
|----777----777----777----7-8----777----777----777----8\7-8----|
|-00-----00-----00-----00-----00-----00-----00-----00-6\5-6----|

Riff 6  (play 4 times)
Tremolo
|--------------------------------------------------------------|
|--------------------------------------------------------------|
|--------------------------------------------------------------|
|--------------------------9"------9"-10"-9"-7"---9"-12"-11"---|
|-6"------6"-7"-5"-6"------7"------7"--8"-7"-5"---7"-10"--9"---|
|-4"------4"-5"-3"-4"------------------------------------------|

Riff 7  (play 4 times)
Tremolo
|---------------------------|
|---------------------------|
|---------------------------|
|--------2"-----4"-----5"---|
|-4"-----3"-----2"-----4"---|
|-2"------------------------|

Structure:
Intro riff once
Riff 1 x 12
Riff 2 x 4
Riff 3 once
riff 4 x 3
Riff 5 x 2
Riff 6 x 4
Riff 7 x 4
Riff 6 x 4
Riff 7 x 4
Riff 5 x 2 (Double time feel)
Comments