Darkthrone - In The Shadows Of The Horns Chords & Tabs

 

In The Shadows Of The Horns Chords & Tabs

Darkthrone Chords & Tabs

Version: 1 Type: Tab 0 ratings
1 star 2 stars 3 stars 4 stars 5 stars
comments

In The Shadows Of The Horns Tab

Darkthrone-In the shadow of the Horns
Tabbed by AbbathDoom ---- Satanic Verses to AbbathDoom@aol.com

 Riff 1
 E -|-------------------------------------------------------|
 H -|-------------------------------------------------------|
 G -|-------------------------------------------------------|
 D -|-10--9--5-5-5-5-5-5-5-5-5-5-10--9--5-5-5-5-5-5-5-5-5-5-|
 A -|-10--9--5-5-5-5-5-5-5-5-5-5-10--9--5-5-5-5-5-5-5-5-5-5-|
 E -|-8---7--3-3-3-3-3-3-3-3-3-3-8---7--3-3-3-3-3-3-3-3-3-3-|
[ Tab from: http://www.guitartabs.cc/tabs/d/darkthrone/in_the_shadows_of_the_horns_tab.html ]
 E -|----------------------------------------|
 H -|----------------------------------------|
 G -|----------------------------------------|
 D -|-5-6-5-2-2-2-2-2-2-2-2-2-2-5-6-5-2------|
 A -|-5-6-5-2-2-2-2-2-2-2-2-2-2-5-6-5-2------|
 E -|-3-4-3-0-0-0-0-0-0-0-0-0-0-3-4-3-0------|
                              Let ring```````
 Riff 2
 E -|-------------------------------------------------
 H -|-------------------------------------------------
 G -|-------------------------------------------------
 D -|-7-\-3--3--3-3--3--3--3-3-\-7--7--7-7--7--7--7-7-
 A -|-7-\-3--3--3-3--3--3--3-3-\-7--7--7-7--7--7--7-7- 
 E -|-5-\-1--1--1-1--1--1--1-1-\-5--5--5-5--5--5--5-5-

     --------------------------------|
     --------------------------------|
     --------------------------------|
     \-3--3--3-3--3--3--3-3-\-7------|
     \-3--3--3-3--3--3--3-3-\-7------| 
     \-1--1--1-1--1--1--1-1-\-5------|
                      Let Ring```````
 Riff 3
 E -|-------------------------------------------------
 H -|-------------------------------------------------
 G -|-------------------------------------------------
 D -|-6-\-7-7-7-7-7-7-7-7-7-7-6-\-7-7-7-7-7-7-7-7-7-7-
 A -|-6-\-7-7-7-7-7-7-7-7-7-7-6-\-7-7-7-7-7-7-7-7-7-7-
 E -|-4-\-5-5-5-5-5-5-5-5-5-5-4-\-5-5-5-5-5-5-5-5-5-5-
       pm ~~~~~~~~~~~~~~~~~~~     ~~~~~~~~~~~~~~~~~~~
     -----------------------------------|
     -----------------------------------|
     -----------------------------------|
     -6-6-6-6-6-6-6-6-6-6-9--8-8-9--8-8-|
     -6-6-6-6-6-6-6-6-6-6-9--8-8-9--8-8-|
     -4-4-4-4-4-4-4-4-4-4-7--6-6-7--6-6-|
      ~~~~~~~~~~~~~~~~~~~

AVE SATHANAS! Send the rest of the song to AbbathDoom@aol.com
Comments