Darkthrone - In The Shadow Of The Horns Chords & Tabs

 

In The Shadow Of The Horns Chords & Tabs

Darkthrone Chords & Tabs

Version: 1 Type: Tab 0 ratings
1 star 2 stars 3 stars 4 stars 5 stars
comments

In The Shadow Of The Horns Tab

   
Song: "In the shadow of the horns"
Artist: Darkthrone
Album: "A Blaze in the northern sky"

Transcribed by Lord Diabolus Noctifer
e-mail:a9847545@unet.univie-ac.at

Riff 1
            A                       B
e|----------------------||---------------------|
B|----------------------||---------------------|
G|----------------------||---------------------|
D|7--6------------------||---------------------|
A|5--4--5--5-5-5-5-5-5-5||3-4-3-2-2-2-2-2-2-2-2|
E|------3--3-3-3-3-3-3-3||1-2-1-0-0-0-0-0-0-0-0|


Riff 2

e|---------------------------|
B|---------------------------|
G|---------------------------|
D|--------------3-3-33-3-3-33|
A|4-4-44-4-4-44-1-1-11-1-1-11|
E|2-2-22-2-2-22--------------|


Riff 3
[ Tab from: http://www.guitartabs.cc/tabs/d/darkthrone/in_the_shadow_of_the_horns_tab.html ]
e|------------------------------------------------|
B|------------------------------------------------|
G|------------------------------------------------|
D|--------------------------------------6-5-55-4-4|
A|7777777777776777777777777666666666666-4-3-33-2-2|
E|5555555555554555555555555444444444444-----------|
  
  <..........> <......................>
                   Palm Muted


Riff 4

e|-------------------|
B|-------------------|
G|-------------------|
D|7----6-------------|
A|5-66-4-55-33-3-33-3|
E|--44---33-11-1-11-1|



Riff 5

   1.Git.                               2.Git.   
e|------------------------------|   e|------------------------|
B|------------------------------|   B|------------------------|
G|999999101010101010999999777666|   B|999999888888999999777666|
D|999999101010101010999999777666|   D|999999888888999999777666|
A|777777-8-8-8-8-8-8777777555444|   A|777777666666777777555444|
E|------------------------------|   E|------------------------|
Comments