Darkness - Stuck In A Rut Chords & Tabs

 

Stuck In A Rut Chords & Tabs

Darkness Chords & Tabs

Version: 1 Type: Tab 0 ratings
1 star 2 stars 3 stars 4 stars 5 stars
comments

Stuck In A Rut Tab

The Darkness
Stuck In A Rut
Album:Permission To Land

its pretty simple, mostly chords, so here ya go, work out the rhythm off the cd
[ Tab from: http://www.guitartabs.cc/tabs/d/darkness/stuck_in_a_rut_tab.html ]
verse:(slightly palm muted)
e----------------------------------------------------------------2--3
b--2--2-2--x--2--x-----------------------------------------------3--3
g--2--2-2--x--2--x--2--2-2--x--2--x--2--2-2--x--2--x--2--2-2--x--2--0
D--2--2-2--x--2--x--2--2-2--x--2--x--2--2-2--x--2--x--2--2-2--x--0---
A--0--0-0--x--0--x--0--0-0--x--0--x--0--0-0--x--0--x--0--0-0--x-----x
E-------------------------------------------------------------------3

bridge:
e-----------------------
b-----------------------
g--7-7----------5--7-7--
D--7-7-4-5-6-7--5--7-7--
A--5-5-4-5-6-7--3--5-5--
E------2-3-4-5----------

chorus:
e-----3--2--3-----3----2-3-
b-----3--3--3-----3----3-3-
g--2--0--2--0--2--0----2-0-
D--2-----0-----2-------0---
A--0-----------0-----------
E-----3-----3-----3------3-

thats all for now, its the basics, enjoy
Comments