Darkness - Stuck In A Rut Chords & Tabs

 

Stuck In A Rut Chords & Tabs

Darkness Chords & Tabs

Version: 1 Type: Bass Tab 0 ratings
1 star 2 stars 3 stars 4 stars 5 stars
comments

Stuck In A Rut Bass Tab

   
Gtr I (E A D G) - 'Bass'

 Intro
  Q=132
              A                                       Bb
 4/4
  Gtr I
  W           E E E E E E E S S   E E E E E E E S S   E E E E E E E S S
|----------||-------------------|-------------------|---------------------|
|----------||-------------------|-------------------|---------------------|
|----------||-------------------|-------------------|---------------------|
|----------||-5-5-5-5-5-5-5-5-4-|-5-5-5-5-5-5-5-5-4-|-6-6-6-6-6-6-6-6-4---|


                       Verse
                        A
  E E E E E E E S S     E E E E E E E S S
|-------------------||--------------------|
|-------------------||o-------------------|
|-------------------||o-------------------|
|-6-6-6-6-6-6-6-6-4-||--5-5-5-5-5-5-5-5-4-|


  E E E E E E E S S   E E E E E E E S S
|-------------------|-------------------|
|-------------------|-------------------|
|-------------------|-------------------|
|-5-5-5-5-5-5-5-5-4-|-5-5-5-5-5-5-5-5-4-|


          D  G    A
  E E E E Q  Q    E E E E E E E S S   E E E E E E E S S   E E E E E E E S S
|---------------|-------------------|-------------------|--------------------|
|---------------|-------------------|-------------------|--------------------|
|---------5-----|-------------------|-------------------|--------------------|
|-5-5-5-5----3--|-5-5-5-5-5-5-5-5-4-|-5-5-5-5-5-5-5-5-4-|-5-5-5-5-5-5-5-5-4--|


                     Pre-Chorus
                      D
  E E E E E E E E     Q  E S S +E  E S E.
|-----------------||----------------------|
|-----------------||o---------------------|
|-----------------||o-5--5-5--------------|
|-5-5-5-5-5-5-5-5-||---------2-(2)-3-3-4--|


 1.,2.,3.          4.
  A        D        A              D
  Q  E E E E Q   4x E. S S S S S E E Q
|----------------||----------------------||
|---------------o||----------------------||
|--------3-5-5--o||----------------5-5---||
|-5--5-5---------||-5--5-5-5-5-5-5-------||

[ Tab from: http://www.guitartabs.cc/tabs/d/darkness/stuck_in_a_rut_btab.html ]
   Chorus
                                       1.
    A  G  D  G    A       G    D G      A
    Q  Q  Q  Q    E S S S E. E E Q   4x H    H      Q  Q  Q  Q
||--------------|--------------------||-----------|--------------||
||o-------------|-------------------o||-----------|-------------o||
||o-------5-----|--------------5----o||-----------|-------------o||
||--5--3-----3--|-5-5-5-5-3------3---||-5----5----|-5--5--5--5---||


 Bridge
  2.
  A
  W          W          +W           E E H    +E  E
|----------|----------|------------|-2-0-2----(2)-0-|
|----------|----------|------------|----------------|
|----------|----------|------------|----------------|
|-5--------|-5--------|-(5)--------|----------------|


  H..       E   H..       E   E E H.        E E H.
|-------------|-2---------2-|-----2-------|-2-0-2-----|
|-------------|-------------|---2---------|-----------|
|-------------|-------------|-0-----------|-----------|
|-5---------5-|-------------|-------------|-----------|


  F          E          Eb         D
  W          W          W          E E E E E E E E   E E E E E E Q
|----------|----------|----------|---------7-7-7---|-7-7-7-7-7-7-7--||
|----------|----------|----------|-------7-------7-|----------------||
|-8--------|-7--------|-6--------|-5-5-5-----------|----------------||
|----------|----------|----------|-----------------|----------------||


   Guitar Solo
    A  G  D  G    A       G    D G          D
    Q  Q  Q  Q    E S S S E. E E Q   4x     Q  H.        W
||--------------|--------------------||-||-------------|------|
||o-------------|-------------------o||-||o------------|------|
||o-------5-----|--------------5----o||-||o-5----------|------|
||--5--3-----3--|-5-5-5-5-3------3---||-||-------------|------|


                                    Chorus / Post-Chorus
                A       D            A  G  D  G    A       G    D G
  Q  Q  Q  Q    Q  Q  E E Q          Q  Q  Q  Q    E S S S E. E E Q     8x
|-------------|---------------||-||--------------|----------------------||
|-------------|--------------o||-||o-------------|---------------------o||
|-5--5--5--5--|---------5-5--o||-||o-------5-----|--------------5------o||
|-------------|-5--5--5-------||-||--5--3-----3--|-5-5-5-5-3------3-----||


 Outro - Free Time
                                         A
  +W           +W           +W           W
|------------:------------:------------:------|
|------------:------------:------------:------|
|------------:------------:------------:------|
|-(3)--------:-(3)--------:-(3)--------:-5----|


                      D                          A
  +W           +H     H      +W           +H     q  Q
|------------:-------------:------------:--------------*|
|------------:-------------:------------:--------------*|
|------------:--------5----:-(5)--------:-(5)----------*|
|-(5)--------:-(5)---------:------------:--------5-----*|
Comments